Song name
# A B C D E F G H I J K L M N O P Q R S T U V W X Y Z

Matthew Good Band - Tripoli tab

"Tripoli"
The Audio of Being (2001)

Alright, this song should not be wrong since it is one of my favorites recently, so here we go!

Here's the verse (though if these chords are played they are quite quiet by Matt)

E-1---3---5---0------------| (that fuzzy do-do-do guiatring is Dave,
B-1---5---5---0------------| playing and muting a tad the 5th string
G-2---5---5---1- on the 12-|th fret)
D-3---5---7---2------------|
A-3---3---7---2------------|
E-3---x---5---0------------|

Verse (Dave's Part)

E-----0-1--------------------------------|(play it over until it ends)
B---1-----------1-0----0-1---------------|
G-------------0-------0--------1-0-------|
D-3---------------------------2----------|
A-----------3----------------------------|
E----------------------------------------|

End it with:

E-------8----7----8------|
B-8-------8----8----8----|
G---7--------------------|

Matt's Chords for the Chorus:

E-1---5---3---3-|
B-1---5---5---3-|
G-2---5---5---4-|
D-3---7---5---5-|
A-3---7---3---5-|
E-1---5---x---3-|

End it with:
(the beat for the Chorus is really easy, so dont worry)
E-1---3---5-|
B-1---5---5-|
G-2---5---5-|
D-3---5---7-|
A-3---3---7-|
E-1---x---5-|

Dave's Part for the Chorus:

E---10---------| (just play this bend, both strings at once, the
B---13b15------| whole time, quite easy)
G--------------|

Dave's Outro (lead if you will)
[(x)~ = play until you catch on to stop with the song, not hard]

E--(10h12)~----------------------(10h12)~---10h12s15------------------------|
B--------------12h13-13-13h12------------------------------12h13------------|
G---------------------------------------------------------------------------|

E----------12)~--10h12-12-12-12--------------------------------------------|
B--(12h13-----------------------------13h15-12h13-15-12-10-----------------|
G--------------------------------------------------------------------------|
Tap to rate this tab
# A B C D E F G H I J K L M N O P Q R S T U V W X Y Z