Song name
# A B C D E F G H I J K L M N O P Q R S T U V W X Y Z

Matthew Good Band - The Fall Of Man tab

Help us improve GuitareTab! Take a short survey!
Fall of Man
By: Driving Mrs. Smith

drop d and half step (Db Ab Db Gb Bb eb)

INTRO
matt
eb------------|
Bb------------|
Gb------------|
Bb--0--3--8---|
Ab--0--3--8---|
Db--0--3--8---|

dave (the 8 on the Bb is play about 11 times but start bending around 6 or 7)
eb------------------------------------|
Bb------------------------------8-----|b9
Gb--9--10--9--10--9-------------------|
Db----------------------10--8---------|
Ab--7--8---7---8---7------------------|
Db----------------------8--6----------|

VERSE
matt (comes in halfway through)
eb--5-------------------|
Bb--5-------------------|
Gb--7-------------------|
Db--7--8-------------3--|
Ab--5--8-------------3--|
Db-----8-end-with-3-----|

dave (pattern isn't 100% accurate and at 1:14 and 3:00 the 8 on the Gb goes to the 8 on 
higher Db NOT the low Db)
|-----0-----0----------0---1p0-----|-----0-----0----------0-----0-----|
|---3-----3-----3----3---3-----3---|---3-----3-----3----3-----3-------|
|-2-----2-----2----2-------------2-|-3-----3-----3----3-----3-----3-2-|
|----------------------------------|----------------------------------|
|----------------------------------|----------------------------------|
|----------------------------------|----------------------------------|


CHORUS
matt
eb------------|------------|
Bb------------|------------|
Gb------------|------------|
Db--0--8--3-|--0--8--10----|
Ab--0--8--3-|--0--8--10----|
Db--0--8--3-|--0--8--10----|

dave
eb------------------------------|------------------------------|
Bb------------------------------|-------------------8~b9-------|
Gb--9--10--9--10--9---------|-12--10--9------------------------|
Db----------------------8--10-|---------------12--8-----10-----|
Ab--7--8---7---8--7----------|--10--8---7----------------------|
Db----------------------6---8-|----------------10--6------8----|

SOLO
matt
eb-------------------------------------|
Bb-------------------------------------|
Gb-------------------------------------|
Db--3--8-------------10-|-0--8--10-----|
Ab--3--8-------------10-|-0--8--10-----|
Db--3--8-end-with-10-|-0--8--10--------|

dave (a lot of bends...something like this anyway)
eb----------------------------------------------------------------------|
Bb--12b13----12b14-13---------------------------------------------------|
Gb----------10--------------12b13-12--10--9--10--9--7--5--7~------------|
Db----------------------------------------------------------------------|
Ab----------------------------------------------------------------------|
Db----------------------------------------------------------------------|

OUTRO
just play the intro
Related for The Fall Of Man tab