Song name
# A B C D E F G H I J K L M N O P Q R S T U V W X Y Z

Matthew Good Band - Sort Of A Protest Song tab

Sort of a Protest Song
By: Driving Mrs. Smith

SOAPS

drop D

intro/verse
e----------------------------------------|
B-3------3--3-----------------3----------|
G-2--7--5--4--7----7---------0h2---------|
D-0--7--5--4--7----7---------0-----------|
A-2--5--3--2--5--2\5--4--0h2-------------|
D---------------5--2\5--4--0h2-----------|

2nd guitar(with delay)
e-3----3---3---3--------|
B-----------------------|
G---2----0--------------|
D-------------4----2----|
A-----------------------|
E-----------------------|

chorus 8x (i've tried 2 different ways, tell me which one is better)
e-----------|-------------------------|
B-----------|-------------------------|
G-----7----|--4--11--7--11--9--7------|
D-2--7--5-|---------------------------|
A-2--5--5-|--2---9--5---9---7--5------|
D-2-----5-|---------------------------|

2nd guitar
e-----------------14----------14----15--15-------|
B--15--15--15------15--15----15---------15-------|
G------------------------------------------------|
A------------------------------------------------|
D------------------------------------------------|
E------------------------------------------------|

Bridge guitar 1 (still have no idea..does he follow dave or what?)
e-------------------|
B-------------------|
G-------------------|
D-5--4--5--2--0-----|?
A-5--4--5--2--0-----|?
D-5--4--5--2--0-----|?

guitar 2
e---------------------------------------------------------------------|
B---------------------------------------------------------------------|
G-7--6--7--4--2--7--12--11--9--9--7--9-11--9--7--6--7--4--------------|
D---------------------------------------------------------------------|
A-5--4--5--2--0--5--11--10--7--7--5--7--9---7--5--4--5--2-------------|
E---------------------------------------------------------------------|

outro
e--------------------------------------------------------------------------------|
B--------------------------------------------------------------------------------|
G------0--------0--2------0-------0-------0-------0---------0-------0------------|
D---4---4----4----------4--4---4-------4---4---4--------4---4---4-------0--------|
A-5--------5----------5-------5-----5-3-------3-----3-2--------2-----2---0-------|
D----------------------------------------------------------------------------0---|

song order

intro
verse 1
chorus
verse 2
chorus
bridge
verse 3
chorus
outro

ok if someone could help me out with the chorus, and matt's guitar during the bridge 
be great. and dave plays something before the 12t and 3rd chorus that illudes me...plus 
thing he plays before the outro...it's kinda close to what he plays in the chorus is all i know

also before the 2nd chorus dave plays this

e
B--5h7p5----5--0-|
G-----------7----|
D
A
E
Tap to rate this tab
# A B C D E F G H I J K L M N O P Q R S T U V W X Y Z