Song name
# A B C D E F G H I J K L M N O P Q R S T U V W X Y Z

Matthew Good Band - Generation X-wing tab

Help us improve GuitareTab! Take a short survey!
Song: Generation X-Wing
Band: Matthew Good Band
Tabbed By: Me(Aaron)

*Guitar not included*

ask if you want the second guitar stuff tabbed

Standard Tuning:

VERSE:

e|--------------|
B|--------------|
G|---5------5-2-|
D|-3-5-5--3-5-2-| How ever many times it takes to sing the verse
A|-3-3-5--3-3-0-|
E|-1---3--1-----|

e|---
B|---
G|---
D|-5-  repeatively strum going into chorus
A|-5-
E|-3-

CHORUS:

e|---------|
B|---------|
G|-7---5---|      that is pretty much it
D|-7-3-5-5-|
A|-5-3-3-5-|
E|---1---3-|


SOLO:

e|------------------------------------------------------------------------------------|
B|------------------------------------------------------------------------------------|
G|------------------------------------------------------------------------------------|
D|-10p8----10p8----10p8----------10p8----10p8----10p8---------------------------------|
A|------7^-----9^------7^-h9---------7^------9^------^9^(bend harder and bring back)--|
E|------------------------------------------------------------------------------------|


QUIET RIFF NEAR THE END:
(Sounds like a phaser & palm muted)

e|-------------------|
B|-------------------|
G|o-4-4-4-5-5-5-5-5-o| repeat
D|o-----------------o|
A|-------------------|
E|-------------------|

AND ONE LAST CHORD:
(Quietly played before the chorus starts again)

e|----|
B|----|
G|-12-|
D|-12-|
A|-10-|
E|----|

Note: There is a little riff played in the last chorus. I don't know it, sorry. I'm 
working on it.
Related for Generation X-wing tab