Guitaretab - guitar tabs
Song name
# A B C D E F G H I J K L M N O P Q R S T U V W X Y Z

Matthew Good Band - Hello Time Bomb tab

T1: Greg Smith, c_joyce9@hotmail.com, Matthew Good Band, Hello Time
Bomb, 13/09/99

S1: Verse 1
           C  C  D  D  D                          A  A  F  F  F
e|-----------------|------------------|-------------------|---------------------|
B|-----------------|------------------|-------------------|---------------------|
G|---------5--5-/7-|7--7--------------|-------------------|-------------------o-|
D|---------5--5-/7-|7--7--------------|-----------7--7-\3-|3--3---------------o-|
A|---------3--3-/5-|5--5--------------|-----------7--7-\3-|3--3-----------------|
E|-----------------|------------------|-----------5--5-\1-|1--1-----------------|
(note: This is now known as RIFF 1)

Pre-Chorus
   F                                    C
e|-----------------|------------------|------------------|---------------------|
B|-----------------|------------------|------------------|---------------------|
G|-----------------|------------------|-5-5-5-5-5-5-5-5--|-5-5-5-5-5-5-5-5-----|
D|-3-3-3-3-3-3-3-3-|-3-3-3-3-3-3-3-3--|-5-5-5-5-5-5-5-5--|-5-5-5-5-5-5-5-5-----|
A|-3-3-3-3-3-3-3-3-|-3-3-3-3-3-3-3-3--|-3-3-3-3-3-3-3-3--|-3-3-3-3-3-3-3-3-----|
E|-1-1-1-1-1-1-1-1-|-1-1-1-1-1-1-1-1--|------------------|---------------------|

Chorus
   D                 Bb                 F                  E
e|-----------------|------------------|------------------|---------------------|
B|-----------------|------------------|------------------|---------------------|
G|-7-7-7-7-7-7-7-7-|------------------|-1010101010101010-|-9-9-9-9-9-9-9-9-----|
D|-7-7-7-7-7-7-7-7-|-8-8-8-8-8-8-8-8--|-1010101010101010-|-9-9-9-9-9-9-9-9-----|
A|-5-5-5-5-5-5-5-5-|-8-8-8-8-8-8-8-8--|-8-8-8-8-8-8-8-8--|-7-7-7-7-7-7-7-7-----|
E|-----------------|-6-6-6-6-6-6-6-6--|------------------|---------------------|

   D                 Bb                 F                  C
e|-----------------|------------------|------------------|---------------------|
B|-----------------|------------------|------------------|---------------------|
G|-7-7-7-7-7-7-7-7-|------------------|-1010101010101010-|---------------------|
D|-7-7-7-7-7-7-7-7-|-8-8-8-8-8-8-8-8--|-1010101010101010-|-1010101010101010----|
A|-5-5-5-5-5-5-5-5-|-8-8-8-8-8-8-8-8--|-8-8-8-8-8-8-8-8--|-1010101010101010----|
E|-----------------|-6-6-6-6-6-6-6-6--|------------------|-8-8-8-8-8-8-8-8-----|

Verse 2 (riff 1 again)
C  C  D  D  D                          A  A  F  F  F
e|-----------------|------------------|-------------------|---------------------|
B|-----------------|------------------|-------------------|---------------------|
G|---------5--5-/7-|7--7--------------|-------------------|-------------------o-|
D|---------5--5-/7-|7--7--------------|-----------7--7-\3-|3--3---------------o-|
A|---------3--3-/5-|5--5--------------|-----------7--7-\3-|3--3-----------------|
E|-----------------|------------------|-----------5--5-\1-|1--1-----------------|

e|-----------------|------------------|------------------|---------------------|
B|-9-9-9-9-9-9-9-9-|-9-9-9-9-9-9-9-9--|-9-9-9-9-9-9-9-9--|-9-9-9-9-9-9-9-9-----|
G|-----------------|------------------|------------------|---------------------|
D|-----------------|------------------|------------------|---------------------|
A|-----------------|------------------|------------------|---------------------|
E|-----------------|------------------|------------------|---------------------|

Bridge
e|-----------------|------------------|------------------|---------------------|
B|-----------------|------------------|------------------|---------------------|
G|--7-7------------|------------------|--7-7-------------|----5-5-5---------5-o|
D|--7-7---8---7---3|----5-5-5-------5-|--7-7---8---7---3-|----5-5-5---------5-o|
A|--5-5---8---7---3|----5-5-5-------5-|--5-5---8---7---3-|----3-3-3---------3--|
E|--------6---5---1|----3-3-3-------3-|--------6---5---1-|----3-3-3---------3--|

Verse 3 (played overtop of riff 1, same notes as lyrics)
e|-----------------|------------------|
B|-----8---8--6--8-|-/10--------------|
G|-----------------|------------------|
D|-----------------|------------------|
A|-----------------|------------------|
E|-----------------|------------------|

riff:

e|-----------------|-------------------|
B|--6---6---6---6--|--6---6---6---6----|
G|----9---9---9---9|----9---9---9---9-o|
D|-----------------|------------------o|
A|-----------------|-------------------|
E|-----------------|-------------------|


e|-----------------|-------------------|
B|--8---8---8---8--|--8---8---8---8----|
G|----9---9---9---9|----9---9---9---9--|
D|-----------------|-------------------|
A|-----------------|-------------------|
E|-----------------|-------------------|

play this:

e|-----------------|------------------|------------------|---------------------|
B|-7-6-7---7-6-7---|-7-6-7---7-6-7----|-7-6-7---7-6-7----|-9-8-9---9-8-9-------|
G|-------6-------6-|-------6-------6--|-------6-------6--|-------6-------6----o|
D|-----------------|------------------|------------------|--------------------o|
A|-----------------|------------------|------------------|---------------------|
E|-----------------|------------------|------------------|---------------------|


[ Tab from: http://www.guitaretab.com/m/matthew-good-band/23722.html ]
Related for Hello Time Bomb tab
Hello Time Bomb chords by Matthew Good Band