Song name
# A B C D E F G H I J K L M N O P Q R S T U V W X Y Z

Matthew Good Band - Fated tab

Help us improve GuitareTab! Take a short survey!
-------------------------------------------------------------------------------
		     MATTHEW GOOD BAND - Fated
-------------------------------------------------------------------------------
Tabbed by: M Wrobel

Tuning: HALF-STEP DOWN

  -= Verses =-

 G    e|---------------------------------------------------------------------|
 u    B|---------------------------------------------------------------------|
 i  #    G|---------0----------------------0---------------|      played x11-|
 t  1    D|------4----------0-----------4--------------0---------------------|
 a    A|---2----------4-----4-----5--------------0---------------------------|
 r     E|--------------------------------------3-----------------------------|


 G    e|----------------------------------------------------------------------|
 u    B|----------------------------------------------------------------------|
 i  #    G|---4---4-4----------------7---7-7---------------|       played x11-|
 t  2    D|---4---4-4----7---7-7-----7---7-7-----5--5-5-----------------------|
 a    A|---2---2-2----4---4-4-----5---5-5-----5--5-5--------------------------|
 r    E|--------------------------------------3--3-3--------------------------|


  -= Pre-Chorus =-

 G    e|--------------------------------------------------|
 u    B|--------------------------------------------------|
 i  #    G|---------0---------------------0---------0-----|
 t  1    D|------4----------0----------4---------4--------|
 a    A|---2----------4-----4----5------------------------|
 t    E|-----------------------------------5--------------|

	e|---------------------------------------|
	B|---------------------------------------|
	G|---------------------------------------|
	D|--------0--------0--------0--------0---|
	A|-----0--------0--------0--------0------|
	E|--3--------3--------2--------2---------|

 G    e|------------------------------------------------|
 u    b|------------------------------------------------|
 i  #    g|---4---4-4---------------7---7-7-------------|
 t  2    d|---4---4-4----7---7-7----7---7-7---7--7-7----|
 a    a|---2---2-2----4---4-4----5---5-5---7--7-7-------|
 r    e|-----------------------------------5--5-5-------|

	e|----------------------------------------|------|
	B|----------------------------------------|------|
	G|----------------------------------------|------|
	D|--5--5-5---5--5-5---4--4-4---4--4-4-----|---2--|
	A|--5--5-5---5--5-5---4--4-4---4--4-4-----|---2--|
	E|--3--3-3---3--3-3---2--2-2---2--2-2-----|---0--|


  -= CHORUS =-

e|----0----0----3---3---0-----3---0----3---3---0----3--3--0---3--0--0-----|
b|----3----3----3---3---3-----3---3----3---3---3----3--3--3---3--3--3--3--|
g|----0----2----0---0---0-----0---2----0---0---0----0--0--0---0--2--2--0--|
d|----x----0----0---0---x-----x---0----0---0---x----0--0--x---0--0--2--2--|
a|----2----0----x---x---2-----2---0----x---x---2----x--x--2---x--0--0--2--|
e|----0---------3---2---0-----0--------3---2---0----3--2--0---3--------0--|


-= Guitar #3 after the chorus =-

Right after the first Chorus, this is played over the verse:

e|---------------------2-----------|
b|----2-------2^3----2--2----2-----|
g|------4--4-------4-------4----4--|     x3
d|---------------------------------|
a|---------------------------------|
e|---------------------------------|

e|----------------------2--------2--|
b|----2--------2^3---------2-----3--|
g|-------4--4--------4-------4---4--|    once
d|----------------------------------|
a|----------------------------------|
e| ---------------------------------|


before the second chorus, it comes back again.

e|---------------------2-----------|
b|----2-------2^3----2--2----2-----|
g|------4--4-------4-------4----4--|      x4
d|---------------------------------|
a|---------------------------------|
e|---------------------------------|

Pre Chorus

e|-----------------------------------------|
b|--------3--------3--------3--------3--3--|
g|-----2--------2--------2--------2-----2--|   once
d|--0--------0--------0--------0--------0--|
a|-----------------------------------------|
e| ----------------------------------------|


Lyrics:

There's a space man in my basement
there's an IV keeping time beside my bed
and a painting of Jesus wandering
for a dart board
you know he's seen you naked a million times

Chorus:

I long to be dead
and sleep with the fishes under the sea
they can swim through my head
and stop all the traffic jams
stop all the traffic jams
and there'll be no light tonight
if I'm fated

There's a cartoon killer in my livingroom
cut you open like candy and pull out your little wound
like tv dinners for the third world
and amputee dancing girls
you try but you fail cause you're bad at life
and good in a vacuum

Chorus:

I long to be dead
and sleep with the fishes under the sea
they can swim through my head
and stop all the traffic jams
stop all the traffic jams
and there'll be no light tonight
if I'm fated
Related for Fated tab