Song name
# A B C D E F G H I J K L M N O P Q R S T U V W X Y Z

Matthew Good Band - Everything Is Automatic tab

Guitar 1
E|-----------------------------------|
B|-----------------------------------|
G|-----------------------------------|
D|-----------------------------------|
A|---------5-----5---------5---5-----|
E|-7-7-7-7---7-7---7-7-7-7---7---3---|
PM . . . . . . . . . . . . . . .


E|-----------------------------------|
B|-----------------------------------|
G|-----------------------------------|
D|-----------------------------------|
A|---------7---------------5---5-----|
E|-5-5-5-5---5-0-3-3-3-3-3---3---3---|
   . . . . . . . . . . . . . . . .

Guitar 2
E|------------------------------------------|
B|------------------------------------------|
G|-----0---0-----0---0-----0---0------0---0-|
D|---7---7---7-7---7-----9---9------9---9---|
A|-9-------------------7---------7----------|
E|------------------------------------------|

here ya go
Tap to rate this tab
# A B C D E F G H I J K L M N O P Q R S T U V W X Y Z