Song name
# A B C D E F G H I J K L M N O P Q R S T U V W X Y Z

Matthew Good Band - Rico tab

Artist:     Matthew Good Band
Song:       Rico
Album:      Underdogs
Year:       1997
Tuning:     Standard
Tabbed By:  pdolmage
Submitted:  12/15/07

Intro Chord
e|-----------------------------------------|
B|-9~--------------------------------------|
G|-9~--------------------------------------|
D|-9~--------------------------------------|
A|-7~--------------------------------------|
E|-----------------------------------------|

Verse Riff
e|-----------------------------------------|
B|-----------------------------------------|
G|-9-9-9-8-8-8-6-6-6-5-5-5-9/11/9----------|
D|-----------------------------------------|
A|-----------------------------------------|
E|-----------------------------------------|

Verse
e|-----------------------------------------|
B|-----------------------------------------|
G|-------4-4-4-4-6-6-6-6-------------------|
D|-2-2-2-4-4-4-4-6-6-6-6-6-6-4-4-----------|
A|-2-2-2-2-2-2-2-4-4-4-4-6-6-4-4-----------|
E|-0-0-0-----------------4-4-2-2-----------|
   (Palm Mute as needed)

Chorus
e|-----------------------------------------|
B|-----------------------------------------|
G|-9-9-9-9-9-----6-6-6-6-6-6---------------|
D|-9-9-9-9-9-9-9-6-6-6-6-6-6-7-7-7---------|
A|-7-7-7-7-7-9-9-4-4-4-4-4-4-7-7-7---------|
E|-----------7-7-------------5-5-5---------|

Either of these ways works for the Bridge and Bridge End parts.

Bridge A
Gt.1
e|-----------------------------------------|
B|-----------------------------------------|
G|-44444444-22222222-66666666-22222222-----|
D|-44444444-22222222-66666666-22222222-----|
A|-22222222-00000000-44444444-00000000-----|
E|-----------------------------------------|

Gt.2
e|-----------------------------------------|
B|-----------------------------------------|
G|-44444444-66666666-88888888-99999999-----|
D|-44444444-66666666-88888888-99999999-----|
A|-22222222-44444444-66666666-77777777-----|
E|-----------------------------------------|

  (Pick Bridge instead of strum as desired)

Bridge B
e|-----------------------------------------|
B|-----------------------------------------|
G|-44444444-2~-----------------------------|
D|-44444444-2~-----------------------------|
A|-22222222-0~-----------------------------|
E|-----------------------------------------|

Bridge C
e|-----------------------------------------|
B|-----------------------------------------|
G|-44444444-22222222-66666666-99999999-----|
D|-44444444-22222222-66666666-99999999-----|
A|-22222222-00000000-44444444-77777777-----|
E|-----------------------------------------|

e|-----------------------------------------|
B|-----------------------------------------|
G|-44444444-22222222-66666666-2~-----------|
D|-44444444-22222222-66666666-2~-----------|
A|-22222222-00000000-44444444-0~-----------|
E|-----------------------------------------|

Solo
e|-----------------------------------------|
B|-----------------------------------------|
G|-16b-------------------------------------|
D|-----16b-14-16-16b-14--------------------|
A|----------------------16-14--------------|
E|-----------------------------------------|

e|-------------------------------------------------------|
B|-------------------------------------------------------|
G|-16b---------------------------------------------------|
D|-----16b-14-16-------14-------14-------14----------14--|
A|---------------14h16----14h16----14h16----14-14h16-----|
E|-------------------------------------------------------|

e|-----------------------------------------|
B|-----------------------------------------|
G|-16b-------------------------------------|
D|-----16b-14-16-16b-14--------------------|
A|----------------------16-14--------------|
E|-----------------------------------------|

e|-----------------------------------------|
B|-----------------------------------------|
G|-16b-------------------------------------|
D|-----16b-14-16~--------------------------|
A|-----------------------------------------|
E|-----------------------------------------|

Order
--------
Intro Chord
Verse w/ Riff x4
Verse x4
Verse w/ Riff x4
Chorus x4
Bridge A x1
Bridge B x1
Verse w/ Riff x2
Verse x4
Chorus x4
Bridge A x1
Bridge C x1
Chorus x4
Solo w/ Chorus Backing x4
End on C#


Notes
-----
~ Ring Out
h Hammer On
/ Slide
Tap to rate this tab
# A B C D E F G H I J K L M N O P Q R S T U V W X Y Z