Song name
# A B C D E F G H I J K L M N O P Q R S T U V W X Y Z

Matthew Good Band - Middle Class Gangsters tab

Help us improve GuitareTab! Take a short survey!
I'm not sure if this is right, but oh well, and if anyone knows
the rest of this song please email it to me at pearski@hotmail.com

Title:Middle class gangsters
Band:Matthew good band
Album:underdogs


regular tuning

its basically different variations of the e chord

intro/verse riff:
e|------------------------------------------------|
b|------------------------------------------------|
g|------1---------1---------1---------1-----------|
d|----2---2-----2---2-----2---2-----2---2---------|
a|--2------2--4-------4-1-------1-0-------0-------|
E|------------------------------------------------|


then you add in the distored electrice and i think it goes:

e|----------------------------------------------------|
b|----------------------------------------------------|
g|--------5-----6-------------------------------------|
d|-----5--5--7--6-------------------------------------|
a|-----5--3--7--4-------------------------------------|
E|-----3-----5----------------------------------------|
this is also the riff used during the solo, i think.


thats all i know so far, but i'll try and figure the rest out later
Related for Middle Class Gangsters tab