Song name
# A B C D E F G H I J K L M N O P Q R S T U V W X Y Z

Matthew Good Band - Carmelina tab

Matthew Good Band - Carmelina
11/19/06
Drop Db

Intro
Eb|-----------------|
Bb|-----------------|
Gb|----------7~-----|
Db|----------7~-----|
Ab|-(bass)----------|
Db|--0>>>-----------|

Main Riff/Verses
Eb|-----------------------------------------------------------------|
Bb|-----------------------------------------------------------------|
Gb|-5-5---------5---4-4---------4---9/11----------------------------|
Db|-5-5---------5-0-2-2---------2-0-x-----------------------------5-|
Ab|-3-3-0-0-0-0-3-0-2-2-0-0-0-0-2-0-7/9-0-0-0-0-0-0-0-0-0-0-0-0-3-3-|
Db|-----0-0-0-0---------0-0-0-0---------0-0-0-0-0-0-0-0-0-0-0-0-----|
        . . . .         . . . .         . . . . . . . . . . . .

Eb|-------------------------------------------------------------------|
Bb|-------------------------------------------------------------------|
Gb|-5-5---------5---4-4---------4---9/11------------------11-11/9-----|
Db|-5-5---------5-0-2-2---------2-0-x---------------------x--x------5-|
Ab|-3-3-0-0-0-0-3-0-2-2-0-0-0-0-2-0-7/9-0-0-0-0-0-0-0-0-0-9--9-/7-0-3-|
Db|-----0-0-0-0---------0-0-0-0---------0-0-0-0-0-0-0-0-0---------0---|
        . . . .         . . . .         . . . . . . . . .         .

Chorus
Eb|-----------------0-------0--------|
Bb|-----------------3-------3--------|
Gb|-----------------2-------2--------|
Db|-2>>---5>>---0>--0---0>--0--0>----|
Ab|-2>>---5>>---0>------0>-----0>----|
Db|-2>>---5>>---0>------0>-----0>----|

Interlude/Bridge/Outro
Eb|---------------------|
Bb|---------------------|
Gb|-5-5---------7>>-----|
Db|-5-5---5-5---7>>-----|
Ab|-3-3---5-5---5>>-----|
Db|-------5-5---0>>-----|

Pre-Verse w/ Wah
Eb|-----------------------------------------|
Bb|-----------------------------------------|
Gb|-9-7-9-7-9-11-9-7--9-7-9-11-9-7---7------|
Db|--------------------------------9--------|
Ab|-------------------------------------x2--|
Db|-----------------------------------------|

Outro/Solo w/ Wah+FX
Eb|----------------------------8-10--------------------------------|
Bb|------whoosh-up-------------------8b----------7-8>>-7>>---------|
Gb|----------------------5-7---------------------------------------|
Db|-0*fdbk.----------------------------octave FX-------------------|
Ab|-----------------3-5--------------------------------------------|
Db|----------------------------------------------------------------|

Eb|-----------8-10-------------------------------------------------|
Bb|-----------------7*b8-------------------------------------------|
Gb|------5-7-------------------------------------------------------|
Db|----------------pitch-------------------------------------------|
Ab|-3-5-----------harmonic----/8~---5---8p5h7~---------------------|
Db|----------------------------------------------------------------|

Eb|-8-10-------8-10------------------------------------------------|
Bb|------------------7*b8----/17-----17-------18-------------------|
Gb|-------5-7---------------------17-------17-----17---------------|
Db|-----------------pitch---------------19-----------19b20r19--15--|
Ab|----------------harmonic----------------------------------------|
Db|---------------------------weird detune FX----------------------|

Eb|----------------------------------------------------------------|
Bb|----------------------------------------------------------------|
Gb|--(17b19r17--14h17p14)--17p14-17b19r17--------------------------|
Db|-----------x5--------------------------17p16-17b19-14-17--16~~--|
Ab|----------------------------------------------------------------|
Db|----------------------------------------------------------------|
Db|----------------------------------------------------------------|
Tap to rate this tab
# A B C D E F G H I J K L M N O P Q R S T U V W X Y Z