Song name
# A B C D E F G H I J K L M N O P Q R S T U V W X Y Z

Matthew Good Band - I The Throw Away tab

I, The Throw Away... (Matthew Good)

Intro >
E|-----------------|-----------------|-------------------------------|
B|-----------------|-----------------|-------------------------------|
G|-----------------|-----------------|-------------------------------|
D|-----7-----7-----|-----7-----7-----|-----2-----2-----2-----2-----2-|
A|---5-----5-----5-|---4-----4-----0-|---2-----2-----2-----2-----2---|
E|-0-----0-----0---|-0-----0-----0---|-0-----0-----0-----0-----0-----|

E|-----------------|-----------------|-------------------------------|
B|-----------------|-----------------|-------------------------------|
G|-----------------|-----------------|-------------------------------|
D|-----7-----7-----|-----7-----7-----|-----2-----2-----2-----2-----2-|
A|---5-----5-----5-|---4-----4-----0-|---2-----2-----2-----2-----2---|
E|-0-----0-----0---|-0-----0-----0---|-0-----0-----0-----0-----0-----|

Verse 1 >
E|-----------------|-----------------|-----------------|-----------------|
B|-----------------|-----------------|-----------------|-----------------|
G|-----------------|-----------------|-----------------|-----------------|
D|-----7-----7-----|-----7-----7-----|-----2-----2-----|-----2-----2-----|
A|---5-----5-----5-|---4-----4-----0-|---2-----2-----2-|---2-----2-----0-|
E|-0-----0-----0---|-0-----0-----0---|-0-----0-----0---|-3-----3-----3---|

Made a man out of me A killing machine, your baby's going to die,

E|-----------------|-----------------|-------------------------------|
B|-----------------|-----------------|-------------------------------|
G|-----------------|-----------------|-------------------------------|
D|-----5-----5-----|-----4-----4-----|-----7-----7-----7-----7-----7-|
A|---5-----5-----5-|---5-----5-----5-|---7-----7-----7-----7-----7---|
E|-3-----3-----3---|-3-----3-----3---|-5-----5-----5-----5-----5-----|

Ma, your baby's coming home, you know they put a man on the moon, 

E|-----------------|-----------------|-------------------------------|-----------------0-||
B|-----------------|-----------------|-------------------------------|-----------------0-||
G|-----------------|-----------------|-------------------------------|-----------------0-||
D|-----5-----5-----|-----4-----4-----|-----7-----7-----7-----7-----7-|-----5-----5-----4-||
A|---5-----5-----5-|---5-----5-----5-|---7-----7-----7-----7-----7---|---5-----5-----5-5-||
E|-3-----3-----3---|-3-----3-----3---|-5-----5-----5-----5-----5-----|-3-----3-----3---3-||

Simply to prove that we all need a place to go, where we're not known, where we're not...

E|-------------------------|-----------------|-----------------|-----------------|
B|-------------------------|-----------------|-----------------|-----------------|
G|-------------------------|-----------------|-----------------|-----------------|
D|-------11-------11-------|-----7-----7-----|-----5p4-----4p0-|-----0-----0-----|
A|----12-------12-------12-|---7-----7-----7-|---5-------5-----|---0-----0-----0-|
E|-10-------10-------10----|-5-----5-----5---|-3-------3-------|-2-----2-----2---|

1*
E|-------------------------|-----------------|-----------------|-------------------------------|
B|-------------------------|-----------------|-----------------|-------------------------------|
G|-------------------------|-----------------|-----------------|-------------------------------|
D|-------11-------11-------|-----7-----7-----|-----5p4-----4p0-|-----0-----0-----0-----0-----0-|
A|----12-------12-------12-|---7-----7-----7-|---5-------5-----|---0-----0-----0-----0-----0---|
E|-10-------10-------10----|-5-----5-----5---|-3-------3-------|-2-----2-----2-----2-----2-----|

Verse 2 >
E|-------------------|-----------------|-----------------|-----------------|
B|-------------------|-----------------|-----------------|-----------------|
G|-------------------|-----------------|-----------------|-----------------|
D|-------7-----7-----|-----7-----7-----|-----2-----2-----|-----2-----2-----|
A|-----5-----5-----5-|---4-----4-----0-|---2-----2-----2-|---2-----2-----0-|
E|-0-0-----0-----0---|-0-----0-----0---|-0-----0-----0---|-3-----3-----3---|

...And to a lesser degree, I can recall breathing easy, but the deficit rolls,

E|-----------------|-----------------|-------------------------------|
B|-----------------|-----------------|-------------------------------|
G|-----------------|-----------------|-------------------------------|
D|-----5-----5-----|-----4-----4-----|-----7-----7-----7-----7-----7-|
A|---5-----5-----5-|---5-----5-----5-|---7-----7-----7-----7-----7---|
E|-3-----3-----3---|-3-----3-----3---|-5-----5-----5-----5-----5-----|

Built up I suppose, picking up the pieces, Of another fucked up reason,

E|-----------------|-----------------|-------------------------------|-----------------0-||
B|-----------------|-----------------|-------------------------------|-----------------0-||
G|-----------------|-----------------|-------------------------------|-----------------0-||
D|-----5-----5-----|-----4-----4-----|-----7-----7-----7-----7-----7-|-----5-----5-----4-||
A|---5-----5-----5-|---5-----5-----5-|---7-----7-----7-----7-----7---|---5-----5-----5-5-||
E|-3-----3-----3---|-3-----3-----3---|-5-----5-----5-----5-----5-----|-3-----3-----3---3-||

For selling of some freedom that was never free, well never abseloutely, never abseloutely...

E|-------------------------|-----------------|-----------------|-----------------|
B|-------------------------|-----------------|-----------------|-----------------|
G|-------------------------|-----------------|-----------------|-----------------|
D|-------11-------11-------|-----7-----7-----|-----5p4-----4p0-|-----0-----0-----|
A|----12-------12-------12-|---7-----7-----7-|---5-------5-----|---0-----0-----0-|
E|-10-------10-------10----|-5-----5-----5---|-3-------3-------|-2-----2-----2---|

2*
E|-------------------------|-----------------|-----------------|-------------------------------|
B|-------------------------|-----------------|-----------------|-------------------------------|
G|-------------------------|-----------------|-----------------|-------------------------------|
D|-------11-------11-------|-----7-----7-----|-----5p4-----4p0-|-----0-----0-----0-----0-----0-|
A|----12-------12-------12-|---7-----7-----7-|---5-------5-----|---0-----0-----0-----0-----0---|
E|-10-------10-------10----|-5-----5-----5---|-3-------3-------|-2-----2-----2-----2-----2-----|

Verse 3 - (To End) >
E|-------------------|-----------------|-----------------|-----------------|
B|-------------------|-----------------|-----------------|-----------------|
G|-------------------|-----------------|-----------------|-----------------|
D|-------7-----7-----|-----7-----7-----|-----2-----2-----|-----2-----2-----|
A|-----5-----5-----5-|---4-----4-----0-|---2-----2-----2-|---2-----2-----0-|
E|-0-0-----0-----0---|-0-----0-----0---|-0-----0-----0---|-3-----3-----3---|

Made a mess out of me, a killing machine, sometimes when I need them,

E|-----------------|-----------------|-------------------------------|
B|-----------------|-----------------|-------------------------------|
G|-----------------|-----------------|-------------------------------|
D|-----5-----5-----|-----4-----4-----|-----7-----7-----7-----7-----7-|
A|---5-----5-----5-|---5-----5-----5-|---7-----7-----7-----7-----7---|
E|-3-----3-----3---|-3-----3-----3---|-5-----5-----5-----5-----5-----|

If I look hard enough to see them, I can find my feet, as I push against gravity,

E|-----------------|-----------------|-------------------------------|-----------------0-||
B|-----------------|-----------------|-------------------------------|-----------------0-||
G|-----------------|-----------------|-------------------------------|-----------------0-||
D|-----5-----5-----|-----4-----4-----|-----7-----7-----7-----7-----7-|-----5-----5-----4-||
A|---5-----5-----5-|---5-----5-----5-|---7-----7-----7-----7-----7---|---5-----5-----5-5-||
E|-3-----3-----3---|-3-----3-----3---|-5-----5-----5-----5-----5-----|-3-----3-----3---3-||

In and out of having them been led by defeat, so one more time's all I need...

End >
E|-------------------------|-----------------|-----------------|-----------------|
B|-------------------------|-----------------|-----------------|-----------------|
G|-------------------------|-----------------|-----------------|-----------------|
D|-------11-------11-------|-----7-----7-----|-----5p4-----4p0-|-----0-----0-----|
A|----12-------12-------12-|---7-----7-----7-|---5-------5-----|---0-----0-----0-|
E|-10-------10-------10----|-5-----5-----5---|-3-------3-------|-2-----2-----2---|

E|-------------------------|-----------------|-----------------|-----------------|
B|-------------------------|-----------------|-----------------|-----------------|
G|-------------------------|-----------------|-----------------|-----------------|
D|-------11-------11-------|-----7-----7-----|-----5p4-----4p0-|-----0-----0-----|
A|----12-------12-------12-|---7-----7-----7-|---5-------5-----|---0-----0-----0-|
E|-10-------10-------10----|-5-----5-----5---|-3-------3-------|-2-----2-----2---|

E|-------------------------|-----------------|-----------------|-----------------|
B|-------------------------|-----------------|-----------------|-----------------|
G|-------------------------|-----------------|-----------------|-----------------|
D|-------11-------11-------|-----7-----7-----|-----5p4-----4p0-|-----0-----0-----|
A|----12-------12-------12-|---7-----7-----7-|---5-------5-----|---0-----0-----0-|
E|-10-------10-------10----|-5-----5-----5---|-3-------3-------|-2-----2-----2---|

E|-------------------------|-----------------|-----------------|-0-| <
B|-------------------------|-----------------|-----------------|-0-| <
G|-------------------------|-----------------|-----------------|-0-| <
D|-------11-------11-------|-----7-----7-----|-----5p4-----4p0-|-4-| <
A|----12-------12-------12-|---7-----7-----7-|---5-------5-----|-5-| <
E|-10-------10-------10----|-5-----5-----5---|-3-------3-------|-3-| <
Tap to rate this tab
 
# A B C D E F G H I J K L M N O P Q R S T U V W X Y Z