Song name
# A B C D E F G H I J K L M N O P Q R S T U V W X Y Z

Matthew Good Band - Symbolistic White Walls tab

Artist: Matthew Good Band
Song: Symbolistic White Walls
Album: Last of the Ghetto Astronauts (1995)

Tuning-Standard with Capo on 3rd Fret


Intro-This also happens again in the song a few times


e---------------------------------------------------------------|
B---------------------------------------------------------------|
G---------------------------------------------------------------|
D-------------------------------------------------------------2-|
A--0-0h2-0h2-----0-0h2-0h2-----0-0h2-0h2/5---0-0h2-0h2--------2-|
E------------0-------------0---------------------------0------0-|


Main Riff

e--------------|
B--------------|
G--------------|
D--------------|
A--0-0h2-0h2---|
E------------0-|


Verse- Guitar comes in on second part of verse. "I'm wearin' the same grin..."

e----------------------------------------------------------------------|
B----------------------------------------------------------------------|
G----------------------------------------------------------------------|   x2
D----------------------------------------------------------------------|
A-2-2-2-2-2-2-2-2-2-5-5-5-5-5-5-5-5-4-4-4-4-4-4-4-4-7-7-7-7-7-7-7-7-7--|
E-0-0-0-0-0-0-0-0-0-3-3-3-3-3-3-3-3-2-2-2-2-2-2-2-2-5-5-5-5-5-5-5-5-5--|
 p.m..................................................................


Pre-Chorus- "I have a psychic..."

e--0-0-0-0-0-0-0-0-0-0-0-0-0-0-0-0-----------------0-0-0-0-0-0-0-0--|
B--0-0-0-0-0-0-0-0-0-0-0-0-0-0-0-0-2-2-2-2-2-2-2-2-2-2-2-2-2-2-2-2--|
G--0-0-0-0-0-0-0-0-0-0-0-0-0-0-0-0-3-3-3-3-3-3-3-3-2-2-2-2-2-2-2-2--|      x2
D--2-2-2-2-2-2-2-2-0-0-0-0-0-0-0-0-4-4-4-4-4-4-4-4-2-2-2-2-2-2-2-2--|
A--2-2-2-2-2-2-2-2-2-2-2-2-2-2-2-2-4-4-4-4-4-4-4-4-0-0-0-0-0-0-0-0--|
E--0-0-0-0-0-0-0-0-3-3-3-3-3-3-3-3-2-2-2-2-2-2-2-2------------------|


Chorus- "Symoblistic white walls surround me and you..."

e-------------------------------------------------------------------|
B-------------------------------------------------------------------|
G-------------------------------------------------------------------|
D--2-2-2-2-2-2-2-2-5-5-5-5-5-5-5-5-4-4-4-4-4-4-4-4-7-7-7-7-7-7-7-7--|      x2
A--2-2-2-2-2-2-2-2-5-5-5-5-5-5-5-5-4-4-4-4-4-4-4-4-7-7-7-7-7-7-7-7--|
E--0-0-0-0-0-0-0-0-3-3-3-3-3-3-3-3-2-2-2-2-2-2-2-2-5-5-5-5-5-5-5-5--|


That's about it...have fun!
Tap to rate this tab
# A B C D E F G H I J K L M N O P Q R S T U V W X Y Z