Song name
# A B C D E F G H I J K L M N O P Q R S T U V W X Y Z

Matthew Good Band - My Life As A Circus Clown tab

Song: My Life As A Circus Clown
Artist: Matthew Good Band
Album: Loser Anthems/Beautiful Midnight (B-Side)
Section: Tab/Chords
Tuning: Eb Ab Db Gb Bb Eb
Tabbed By: Wade Ouellet

Intro/Verse (Guitar 2):
|------------------|
|-----55-------5---|
|---444444-----4---|
|-44442244---442---|
|-4422--22-4422----|
|-22-------22------|
....................Palm mute

Verse (Guitar 1):
|-------|
|-------|
|-------|
|-2-4---|
|-------|
|-------| 

|----------------------------------------|
|----------------------------------------|
|----------------------------------------|
|--------------9---9-----------------9---|
|-9h11--9h11p9---9---9--9h11--9h11p9-----|
|----------------------------------------|

Chorus (chords):
F# F#/B C# E

Interlude:

|--------------------------------------------------|
|---------------------------------------------12---|
|--------------------------------------------------|
|--------------9---9-----------------9-------------|
|-9h11--9h11p9---9---9--9h11--9h11p9---9h11p9------|
|--------------------------------------------------|
Tap to rate this tab
 
# A B C D E F G H I J K L M N O P Q R S T U V W X Y Z