Song name
# A B C D E F G H I J K L M N O P Q R S T U V W X Y Z

Matthew Good Band - Flight Recorder From Viking 7 tab

============================================
Matthew Good Band
Flight Recorder From Viking 7 : Guitar Tab
============================================
W W W . R U N N I N G F O R H O M E . N E T


=======================================================
Tabbed By : Neil Devereaux (The Official RFH Tab Guy!)
=======================================================


Tuning C#, Ab, Db, Gb, Bb, Eb
Every string is tuned down half a step,
except for your low E (the big one, lol)
Tune your low E down 1 and a half steps
(like drop d but half a step lower on every string)

Listen to the song to perfect the strumming...


Verse (also played for intro)

Eb---------------------------------------------------------------------------|
Bb---------------------------------------------------------------------------|
Gb---------------------------------------------------------------------------|
Db--8--8--8---8--8--8--0-3--3--3---3--3--3--0-5--5--5--0-3--3--3--0-1--1--1--|
Ab--8--8--8---8--8--8--0-3--3--3---3--3--3--0-5--5--5--0-3--3--3--0-1--1--1--|
C#--8--8--8---8--8--8--0-3--3--3---3--3--3--0-5--5--5--0-3--3--3--0-1--1--1--|

---------------------------------------------------------|
---------------------------------------------------------|
---------------------------------------------------------|
--1--1--1--0-5--5--5--0-3--3--3--0-1--1--1----1--1--1-1--|
--1--1--1--0-5--5--5--0-3--3--3--0-1--1--1----1--1--1-1--|
--1--1--1--0-5--5--5--0-3--3--3--0-1--1--1----1--1--1-1--|


Chorus (What is played when Holly is singing)

Eb---------------------------------------------------|
Bb---------------------------------------------------|
Gb---------------------------------------------------|
Db--3--3--3-3--0-5--5--5-5--0-1--1--1---1--1--1-1-1--|
Ab--3--3--3-3--0-5--5--5-5--0-1--1--1---1--1--1-1-1--|
C#--3--3--3-3--0-5--5--5-5--0-1--1--1---1--1--1-1-1--|


-----------------------------------------------------------------------------|
-----------------------------------------------------------------------------|
-----------------------------------------------------------------------------|
--3--3--3-3--0-5--5--5-5--0-1--1--1---1--1---1--1--1-1--1--1-1--1---1--1--1--|
--3--3--3-3--0-5--5--5-5--0-1--1--1---1--1---1--1--1-1--1--1-1--1---1--1--1--|
--3--3--3-3--0-5--5--5-5--0-1--1--1---1--1---1--1--1-1--1--1-1--1---1--1--1--|


Outro (This is what is played when the strings section comes in)

Eb--------------------------------------------------------------------|
Bb--------------------------------------------------------------------|
Gb--------------------------------------------------------------------|
Db--8--8--8--0-7--7--7--0-5--5--5--0-3--3--3--0-1--1--1---1--1--1--0--|
Ab--8--8--8--0-7--7--7--0-5--5--5--0-3--3--3--0-1--1--1---1--1--1--0--|
C#--8--8--8--0-7--7--7--0-5--5--5--0-3--3--3--0-1--1--1---1--1--1--0--|


This is the order you play everything...

Intro
Verse x2
Chorus
Verse x2
Chorus
Outro x4

=====================================================================
To request a tab...
Email me : stentors@hotmail.com
ICQ me   : 78825757

Or catch me on the APA Message Board AS LittleButcherBoy
=====================================================================
This tab is exclusive to www.runningforhome.net
So if you got it somewhere else, email me so i can give them shit...
=====================================================================
Tap to rate this tab
# A B C D E F G H I J K L M N O P Q R S T U V W X Y Z