Song name
# A B C D E F G H I J K L M N O P Q R S T U V W X Y Z

Matthew Good - Moon Over Marin tab

Artist: Matthew Good
Song: Moon Over Marin (Written by The Dead Kennedys)
Album: Hospital Music
Section: Tab/Chords
Tuning: Eb Ab Db Gb Bb Eb

Intro/Interlude/Outro:

Guitar 1:
|------------------------------|
|------------------------------|
|-9--/11-----------------------|
|---------9--/11----9/11-9\7---|
|------------------------------|
|------------------------------|

Guitar 2:
|----9--------------9--9---------|
|-10---10---------10-10-10-------|
|---------10----10--------9-11---| x4
|--------------------------------|
|--------------------------------|
|--------------------------------|

Chords:

    A
The crowded future stings my eyes
  G
I still find time to exercise
   B                               D C#
In uniform with two white stripes
  A
Unlock my section of the sand
     G
It's fenced off to the water's edge
  B
I clamp a gasmask on my head
D     C#       A
On my beach at night
D        C#     E
Bathe in my moonlight

 A
Another tanker's hit the rocks
 G
Abandoned to spill out its guts
    B                                D C#
The sand is laced with sticky glops
  A
O'shimmering moonlight sheen upon
    G
The waves and water clogged with oil
      B  
White gasses steam up from the soil
D     C#       A
On my beach at night
D        C#     E
Bathe in my moonlight

  A
I squash dead fish between my toes
    G
Try not to step on any bones
  B                          D C#
I turn around and I go home
  A
I slip back through my basement door
       G
Switch off all that I own below
     B
Dive in my scalding wooden tub
D      C#       A
My own beach at night
D        C#   E     
 Electric moonlight

A G B
           D           C#             A     G    B    D
There will always be a moon over marin
Tap to rate this tab
# A B C D E F G H I J K L M N O P Q R S T U V W X Y Z