Song name
# A B C D E F G H I J K L M N O P Q R S T U V W X Y Z

Matthew Good - Avalanche Acoustic tab

Avalanche (Acoustic)
Matthew Good
(Tab by:  Peter Irwin)

Chords:
C    332010
Am   X02210
G    320033
F    133211
F*   X33210
Asus X02230
D*   X07500
D**  X55430

Intro:

eb------------------------------------------------------|
bb---0h1------1-----0---------0-------------------------|
gb--------2-----2-----0---------0-----------------------|
db-----------------------3/5----------------------------|
ab-0--------3-------------------------------------------|
eb----------------1-------------------------------------|

“One foot in front of the other…”
(repeat)

eb------------------------------------------------------|
bb----------------------------------------0------0------|
gb----0------0------0------------0----------0------0----|
db------4------4-------4----4-------4-------------------|
ab--5------5------5-------5---5--------3-------3--------|
eb------------------------------------------------------|

eb------------------------------------------------------|
bb-----0------0-----------------------------------------|
gb-------0------0---------------------------------------|
db------------------------------------------------------|
ab--3------3--------------------------------------------|
eb------------------------------------------------------|

(repeat x2)

eb------------------------------------------------------|
bb---0h1------1-----0---------0-------------------------|
gb--------2-----2-----0---------0-----------------------|
db-----------------------3/5----------------------------|
ab-0--------3-------------------------------------------|
eb----------------1-------------------------------------|

(repeat)

Pre-chorus: C Am G F* D** Asus
“Days like these…”

Chorus:  F Am C G
“Avalanche, start inside of me…”

D* C G F*
“Everyone’s a casualty…”

Am C G F*  repeat
“I’m spinning…”

Pre-chorus: C Am G F* D** Asus
“Days like these…”

Chorus:  F Am C G
“Avalanche, start inside of me…”

F* (last chord after last repeat in chorus)
“…through the trees”

D* C G F* (x1)
“This key’s to your kingdom…”


“…one foot in front of the other” (repeats acapella)
Tap to rate this tab
# A B C D E F G H I J K L M N O P Q R S T U V W X Y Z