Guitaretab - guitar tabs
Song name
# A B C D E F G H I J K L M N O P Q R S T U V W X Y Z

Matthew Good - House Of Smoke And Mirrors tab

Highlighted       Show chord diagrams
Tuning: Eb/Ab/Db/Gb/Bb/eb
Chords Used

Asus2- x02200
E    - 022100
F#m  - 244200
D/A  - x00232 



verse:
                 |strum|                  |strum|
e|---------------|--0--|------------------|--0--|--------|
B|---------------|--0--|------------------|--0--|--------|
G|--4----2-------|--1--|----1-----2-------|--4--|--------|
D|6---4-----2----|--2--|--2----4----------|--6--|--------|
A|---------------|--2--|-------------0-0--|--0--|--------|
E|---------------|--0--|------------------|--x--|--------|

Thereís the house
Thereís the doorway
Been locked out
The lights are out anyway
And loosely reconditioned
To be just so refined
A last grasp at the life worth living
In these standard shoes and whatís left of my lines



        F#m     E
You can see right through me
        F#m     E
You can see right through me
        F#m     E
You can see right through me___
                
     
e|---0--0--0--0---|
B|---0--0--0--0---|
G|---6--5--7--1---| 
D|---7--7--7--2---|
A|---0--0--0--2---|
E|---x--x--x--0---|
  me____________ 


Asus2   E   F#m
[ Tab from: http://www.guitaretab.com/m/matthew-good/179217.html ]
Asus2 E       F#m
Hey Iíve been thinking
Asus2 E          F#m
Why donít we get out of here tonight?
Asus2      E                 F#m
Get in the car and just start driving
Asus2              E                        F#m          E
Fuck them if they canít take a joke, right?

            D/A    Asus2     E
Iíve fallen asleep-------  again
           D/A  Asus2        E
And when I wake------ up you wonít be here 
                        D/A                              Asus2          E                     
Donít you think I don't know why? Donít you think I don't know why?
          D/A    Asus2         E     
Iíve been asleep----- for years


D/A     Asus2     E


        F#m       
You can see right through me
        E
You can see right through me
        F#m       
You can see right through me___
                
e|---0--0--0--0--0--0-------------0-|
B|---0--0--0--0--1--3-------------0-|
G|---6--5--7--6--0--0------4---2--1-|  
D|---7--7--7--7--2--4----6---4----2-|          
A|---0--0--0--0--3--5-------------2-|
E|---x--x--x--x--x--0-------------0-|
  me_______________________________ 
Related for House Of Smoke And Mirrors tab