Song name
# A B C D E F G H I J K L M N O P Q R S T U V W X Y Z

Matthew Good - Last Parade tab

Capo 2: relative to rhythm guitar

Intro: X6

E:---0-1-0-1-0-1-----0-1-0-1-0-1-3-1-0-1-0-1-0-1-----0-1-0-1-0-1-3-1-|
B:---------------1---------------------------------------------------|
G:-----------------------------------------------2-------------------|
D:-------------------------------------------------------------------|
A:-------------------------------------------------------------------|
E:-------------------------------------------------------------------|

Feel free to translocate to higher frets/lower strings based upon individual comfort. 
I find this method easiest/most
comfortable; with the index finger positioned on the B string, the ring finger 
on the G string, while using the middle
& pinky fingers on the high E string.

Verse: Same as Intro, however now x8

Pre-Chorus:

E:---0-1-0-1-0-1-----0-1-0-1-0-1-3-1-0-1-0-1-0-1-----0-1-0-1---|
B:---------------2-------------------------------------------1-|
G:-----------------------------------------------1-------------|
D:-------------------------------------------------------------|
A:-------------------------------------------------------------|
E:-------------------------------------------------------------|

Chorus:

E:--------------------------------------------------|
B:--------------------------------------------------|
G:---9-9-9-7/5--9-9-9-7/5--9-9-9-7/5--9-9-9-7-5-7---|
D:------------------------------------------------7-|
A:---7-7-7-5-3--7-7-7-5/3--7-7-7-5/3--7-7-7-5-3-5---|
E:------------------------------------------------5-|

E:-------------------------------------------------------|
B:-------------------------------------------------------|
G:---9-9-9-7/5--9-9-9-7/5--9-9-9-7-5-7-7--9-9-7-5-7------|
D:--------------------------------------------------7----|
A:---7-7-7-5/3--7-7-7-5/3--7-7-7-5-3-5-5--7-7-5-3-5------|
E:--------------------------------------------------5----|   x2

E:----------------------|
B:----------------------|
G:---9-9-7/5--9-9-9-7/5-|
D:----------------------|
A:---7-7-5/3--7-7-7-5/3-|
E:----------------------|

Outro: x6

E:--------------------------------|
B:--------------------------------|
G:-10--10-9--9-7--7-5--5-10-9-7-5-|
D:--------------------------------|
A:--------------------------------|
E:--------------------------------|
Tap to rate this tab
 
# A B C D E F G H I J K L M N O P Q R S T U V W X Y Z