Song name
# A B C D E F G H I J K L M N O P Q R S T U V W X Y Z

Matthew Good - Last Parade tab

-----------------------------------------------------------------------------
                             Last Parade - Matthew Good
-----------------------------------------------------------------------------
Tabbed by:Nick Rohla
E-mail:nickrohla@hotmail.com

Tuning:standard

Intro (piano)
e|------------------|
B|------------------|
G|------------------|
D|------------------|
A|----4-6-8---------|
E|--4-------6-------|

Intro/Verse repeated throughout
e|---------------------------------------------------------------------|
B|---------------------------------------------------------------------|
G|--10-11-10-11-10-11-----10-11-10-11-10-11-13-11--10-11-10-11-10-11---|
D|--------------------11---------------------------------------------8-|
A|---------------------------------------------------------------------|
E|---------------------------------------------------------------------|

e|--------------------------|
B|--------------------------|
G|--10-11-10-11-10-11-13-11-|
D|--------------------------|
A|--------------------------|
E|--------------------------|

Pre Chorus
e|--------------------------------------------------------------|
B|--------------------------------------------------------------|
G|--6-6-6-6-6-6-6-6--6-6-6-6-6-6-6-6----------------------------|
D|--x-x-x-x-x-x-x-x--x-x-x-x-x-x-x-x--8-8-8-8-8-8-8-8-8-8-8-8-8-|
A|--4-4-4-4-4-4-4-4--3-3-3-3-3-3-3-3--x-x-x-x-x-x-x-x-x-x-x-x-x-|
E|------------------------------------6-6-6-6-6-6-6-6-6-6-6-6-6-|

e|----------------------------------|
B|----------------------------------|
G|-6-6-6-6-6-6-6-6--8-8-8-8-8-8-8-8-|
D|-x-x-x-x-x-x-x-x--x-x-x-x-x-x-x-x-|
A|-4-4-4-4-4-4-4-4--6-6-6-6-6-6-6-6-|
E|----------------------------------|

Chorus
e|------------------------------------------------------------------------
B|------------------------------------------------------------------------
G|-10-10-10--8-6--10-10-10-8----10-10-10-8----10-10-10-8-6-8--------------
D|--x--x--x--x-x---x--x--x-x-6---x--x--x-x-6---x--x--x-x-x-x-8------------
A|--8--8--8--6-4---8--8--8-6-x---8--8--8-6-x---8--8--8-6-4-6-x------------
E|---------------------------4-------------4-----------------6------------

e|---------------------------------------------------------------|
B|---------------------------------------------------------------|
G|-10-10-10--8-6--10-10-10-8----10-10-10-8-6-8--8--10-10-8-6-8---|
D|--x--x--x--x-x---x--x--x-x-6---x--x--x-x-x-x--x---x--x-x-x-x-8-| x 2
A|--8--8--8--6-4---8--8--8-6-x---8--8--8-6-4-6--6---8--8-6-4-6-x-|
E|---------------------------4---------------------------------6-|

then

e|------------------------------|
B|------------------------------|
G|-10-10-10--8-6--10-10-10-8----|
D|--x--x--x--x-x---x--x--x-x-6--|
A|--8--8--8--6-4---8--8--8-6-x--|
E|---------------------------4--|

Outro (piano)

e|---------------------------|
B|---------------------------|
G|-11-10-8-------11-10-8-----|
D|---^^----11--------^^--11--|
A|--slow-----------faster----|
E|---------------------------|





Tap to rate this tab
# A B C D E F G H I J K L M N O P Q R S T U V W X Y Z