Song name
# A B C D E F G H I J K L M N O P Q R S T U V W X Y Z

Matthew Good - Alert Status Red tab

      Em               C (play chord 3 Times)          G
-----------------------0-------------------------------------3--------------|
-----------------------1-------------------------------------3--------------|
-----------0-----------0----0--------------------------------0-----0--------|
-------2------0--------2-------2-----------------------0--------------0-----|
-------2---------------3----------3--------------------2--------------------|
-0---------------------0-------------------------------3--------------------|


---------------------------------------------------------------------------|
---------------------------------------------------------------------------|
-----------------(repeats)-------------------------------------------------|
-------------0-------------------------------------------------------------|
--3--333320----------------------------------------------------------------|
---------------------------------------------------------------------------|

And there you have it! Keep in mind this is my first tab and i'm only 12
Tap to rate this tab
 
# A B C D E F G H I J K L M N O P Q R S T U V W X Y Z