Guitaretab - guitar tabs
Song name
# A B C D E F G H I J K L M N O P Q R S T U V W X Y Z

Matthew Good - Put Out Your Lights tab

Put Out Your Lights  Matt Good
tabbed by chinups75

Tuning: Standard

Intro: Guitar2 plays this for the Verses
(for the x part, just keep the G chord position but muted)
    F  G         F   Bb F 
e|--1--3--xxxxx--1---1--1-1--1----------------------------------|
B|--1--3--xxxxx--1---3--1-1--1----------------------------------|
G|--2--4--xxxxx--2---3--2-2--2----------------------------------|
D|--3--5--xxxxx--3---3--3-3--3----------------------------------|
A|--3--5--xxxxx--3---1--3-3--3----------------------------------|
E|--1--3--xxxxx--1------1-1--1----------------------------------|

Intro: Guitar1:
e|-----------|
B|-----------|
G|--7-7-7-7--| x a lot
D|-----------|
A|-----------|
E|-----------|

Verse1: Guitar1: You hear this come in a couple times
e|---------------------------------------|
B|---------------------------------------|
G|--7-7-7-7-7-----7----------------------|
D|------------10-----10-10b12b10--8------|
A|-----------------------------------10--|
E|---------------------------------------|

Chorus: Guitar2:
    Bb       F        G
e|--6--------1--------3----|
B|--6--------1--------3----|
G|--7--------2--------4----|
D|--8--------3--------5----|
A|--8--------3--------5----|
E|--6--------1--------3----|
    8x       8x       13x
Then back to the main riff

Verse2: Guitar1 now goes
e|-------------------------------------|
B|-------------------------------------|
G|--7\--------7------------------------|
D|--------10-----10-10b12b10--8--------|
A|-------------------------------10----|
E|-------------------------------------|
Then play the Chorus twice

And at the end of the second Chorus, Guitar1 goes:
e|---------------------|
B|---------------------|
G|-----------7---10----|
D|---8---10------------|
A|---------------------|
E|---------------------|
Guitar2 just slides from a F5 to a G5 quickly, listen to the song for the rhythm
Bridge: Guitar2: The Solo is played over this
e|--3----1----3----1----|
B|--3----1----3----3----|
G|--4----2----4----3----|
D|--5----3----5----3----|
A|--5----3----5----1----|
E|--3----1----3---------|
[ Tab from: http://www.guitaretab.com/m/matthew-good/54182.html ]
Solo: Guitar1:
e|----------------------8-8-----10------------------------8-8--------|
B|----8888888888888888-------11----11---8888888888888888------11-11--|
G|-------------------------------------------------------------------|
D|-------------------------------------------------------------------|
A|-------------------------------------------------------------------|
E|-------------------------------------------------------------------|

e|----------------------------------------------|
B|----------------------------------------------|
G|--------10h12p10--10-10-----------------------|
D|--10h12-----------------12--12-12-12-12-10----|
A|----------------------------------------------|
E|----------------------------------------------|

e|----------------------------------------------|
B|----------------------------------------------|
G|--------10h12p10--10-10-----------------------|
D|--10h12-----------------13--13-13-13-13-12----|
A|----------------------------------------------|
E|----------------------------------------------|

e|----------------------------------------------|
B|----------------------------------------------|
G|--------10h12p10--10-10-----------------------|
D|--10h12-----------------12--12-12-12-12-10----|
A|----------------------------------------------|
E|----------------------------------------------|

e|---------------------------------------------------------|
B|---------------------------------------------------------|
G|--------10h12p10--10-1012b14b12-12b14b12-12b14b12-10----|
D|--10h12--------------------------------------------------|
A|---------------------------------------------------------|
E|---------------------------------------------------------|
The top four lines are repeated except the 4th line loses the 12b14b12

e|------------------------------18-18-18-18-18-----------------------|
B|-------------------------------------------------------------------|
G|-14(repeated)-12-12-12--15-15-----------------14-14b15b14--12-12\--|
D|-------------------------------------------------------------------|
A|-------------------------------------------------------------------|
E|-------------------------------------------------------------------|

Ending:
e|------------3----|
B|---------3-------|
G|------4----------|
D|-----------------|
A|-----------------|
E|--3--------------|
Related for Put Out Your Lights tab