Guitaretab - guitar tabs
Song name
# A B C D E F G H I J K L M N O P Q R S T U V W X Y Z

Matthew Good - Lullaby For A New World Order Acoustic tab

lullaby for a new world order (acoustic) - standard Eb tuning
tabbed by pourn

Em-022000  Em/F#-2x0000
G -320033
Am-x02210  Am/B -x20210  A?-x04030  Am/C-x30210  Am/D-x00210
C -x32010
D -xx0232

(verse 1)
e|-0----------------------0---0------0---------0---------0-0-0-0-0-0-0-|
b|-0----------------------1h3-3------1---------1---------1-1-1-1-1-1-0-|
g|-0----------------------2---2------2---------0---------0-0-0-0-2-2-0-|
d|-2----------------------2---2------2---------2---------2-0-0-0-2-2-0-|
a|-2----------------------0---0------0---------3---------3-3-3-2-0-0---|
E|-0-----------------------------------------------------^-and-^-----^ short
    I've a favor to       ask, maybe this is a bad time                notes 
    You know whenever you ask thereís never a  good time

e|-0----------------0---0----0---------0--------------0---0-|
b|-0----------------1h3-3----1---------1--------------1--\3-|
g|-0----------------2---2----2---------0--------------0---0-|
d|-2----------------2---2----2---------2--------------2--\4-|
a|-2----------------0---0----0---------3--------------3--\5-|
E|-0--------------------------------------------------------|
     How do you take your            heart out of it?

e|-0----------------0---0------0---------0--------------0--0-|
b|-0----------------1h3-3------1---------1--------------1--1-|
g|-0----------------2---2------2---------0--------------0--0-|
d|-2----------------2---2------2---------2--------------2--0-|
a|-2----------------0---0------0---------3--------------3--2-|
E|-0---------------------------------------------------------|
    How can you take your heart           out of this? 

e|--0----------------------1--------0---------0-0-0-0-0-0-0-|
b|--1----------------------1--------1---------1-1-1-1-1-1-0-|
g|--2----------------------2--------0---------0-0-0-0-2-2-0-|
d|--2----------------------3--------2---------2-0-0-0-2-2-0-|
a|--0----------------------3--------3---------3-3-3-2-0-0---|
E|-------------------------1--------------------------------|
And how do you stop once youíve started?
[ Tab from: http://www.guitaretab.com/m/matthew-good/63892.html ]
(prechorus 1)
Em                  G
Somebody gave you a choice
    Am             C
And all you do is abuse it
   Em                G
If god he gave you a voice
     Am  Am/B  C     A?(0:57)
Then use it

(0:59)
e|-0----------------------0---0------0---------0---------0-0-0-0-0-0-0-|
b|-0----------------------1h3-3------1---------1---------1-1-1-1-1-1-0-|
g|-0----------------------2---2------2---------0---------0-0-0-0-2-2-0-|
d|-2----------------------2---2------2---------2---------2-0-0-0-2-2-0-|
a|-2----------------------0---0------0---------3---------3-3-3-2-0-0---|
E|-0-------------------------------------------------------------------|

(same as verse 1)
Hereís something to ask if these are the bad times
Because whenever you ask why itís never the good times
How will we get ourselves out of it?
How can you take your heart out of this?
And how do you stop once youíve started?

(same as prechorus 1)
Somebody gave you a choice
And all you do is abuse it
If god he gave you a voice
Then use it

(chorus 1)
       Em   Em/F#?   G
Just a lullaby            for the 
Am     Am/B     C
new world         order
       Em   Em/F#?   G
Just a lullaby            for the 
Am     Am/B     C
new world         order

(2:22)
D Am Em G x2
D Am Em 
(2:44)
Am Am/B Am/C Am/D

(2:48)
e|--0----------------------1--------0---------0-0-0-0-0-0-0-|
b|--1----------------------1--------1---------1-1-1-1-1-1-0-|
g|--2----------------------2--------0---------0-0-0-0-2-2-0-|
d|--2----------------------3--------2---------2-0-0-0-2-2-0-|
a|--0----------------------3--------3---------3-3-3-2-0-0---|
E|-------------------------1--------------------------------|
And how do you stop once youíve started?

(same as prechorus 1)
Somebody gave you a choice
And all you do is abuse it
If god he gave you a voice
Then use it

(same as chorus 1)       
Just a lullaby for the new world order   
Just a lullaby for the new world order   

(3:29)
Em G Am C

       Em   Em/F#?   G
Just a lullaby            for the 
Am     Am/B     C
new world         order
Related for Lullaby For A New World Order Acoustic tab