Song name
# A B C D E F G H I J K L M N O P Q R S T U V W X Y Z

Matthew Good - In A World Called Catastrophe tab

artist: Matthew Good
record: Avalanche
written by: paul (woger_007@hotmail.com)

Tuning: Eb (Eb Ab Db Gb Bb eb)

Intro: Play this Twice

-----------7//////////----------------------------|
--4-5-4-5---------------4---4---------------------|
----------------------6---6------4---6--8^8-6-4---|
--------------------------------------------------|
--------------------------------------------------|
--------------------------------------------------|

Verse: 'Here it comes, and there it goes...' (Play four times)

--------------------0000-00000000-00000000--------|
--------------5555--0000-00000000-00000000--------|
--4444--2222--6666--1111-11111111-11111111--------|
--4444--4444--7777--2222-22222222-22222222--------|
--2222--4444--7777--2222-22222222-22222222--------|
--xxxx--xxxx--------0000-00000000-00000000--------|


-----------7//////////----------------------------|
--4-5-4-5---------------4---4---------------------|
----------------------6---6------4---6--8^8-6-4---|
--------------------------------------------------|
--------------------------------------------------|
--------------------------------------------------|

Chorus:

'Remember how we started...'

--------------------------------------------------|
-----------------55555555555555-------------------|
-444444444444-22-66666666666666-------------------|
-444444444444-44-77777777777777-------------------|
-222222222222-44-77777777777777-------------------|
-xxxxxxxxxxxx-xx----------------------------------|

'Since then I'm a fool'

-000000000000-------------------------------------|
-000000000000--------------5555555555555----------|
-111111111111-444444444444-6666666666666----------|
-222222222222-444444444444-7777777777777----------|
-222222222222-222222222222-7777777777777----------|
-000000000000-xxxxxxxxxxxx------------------------|

'In a world called catastrophe...'

--------------------00000000-00000000-------------|
--------------------00000000-00000000-------------|
-444444444-22222222-11111111-11111111-------------|
-444444444-44444444-22222222-22222222-------------|
-222222222-44444444-22222222-22222222-------------|
-xxxxxxxxx----------00000000-00000000-------------|

-----------7//////////----------------------------|
--4-5-4-5---------------4---4---------------------|
----------------------6---6------4---6--8^8-6-4---|
--------------------------------------------------|
--------------------------------------------------|
--------------------------------------------------|

Verse: 'Here it comes, and there it goes...' (Play four times)

--------------------0000-00000000-00000000--------|
--------------5555--0000-00000000-00000000--------|
--4444--2222--6666--1111-11111111-11111111--------|
--4444--4444--7777--2222-22222222-22222222--------|
--2222--4444--7777--2222-22222222-22222222--------|
--xxxx--xxxx--------0000-00000000-00000000--------|

-----------7/////////---12-11-------------------------------|
--4-5-4-5---------------------9---------------4---4---------|
---------------------------------11^11/9/8--6---6---4~~~~---|
------------------------------------------------------------|
------------------------------------------------------------|
------------------------------------------------------------|

Chorus:

'Remember how we started...'

--------------------------------------------------|
-----------------55555555555555-------------------|
-444444444444-22-66666666666666-------------------|
-444444444444-44-77777777777777-------------------|
-222222222222-44-77777777777777-------------------|
-xxxxxxxxxxxx-xx----------------------------------|

'Since then I'm a fool'

-000000000000-------------------------------------|
-000000000000--------------5555555555555----------|
-111111111111-444444444444-6666666666666----------|
-222222222222-444444444444-7777777777777----------|
-222222222222-222222222222-7777777777777----------|
-000000000000-xxxxxxxxxxxx------------------------|

'In a world called catastrophe...'

--------------------00000000-00000000-------------|
--------------------00000000-00000000-------------|
-444444444-22222222-11111111-11111111-------------|
-444444444-44444444-22222222-22222222-------------|
-222222222-44444444-22222222-22222222-------------|
-xxxxxxxxx----------00000000-00000000-------------|

Bridge:

--------------------------------------------------------|
----------55555555555555--------------5555555555555555--|
-44444444-66666666666666-22--44444444-6666666666666666--|
-44444444-77777777777777-44--44444444-7777777777777777--|
-22222222-77777777777777-44--22222222-7777777777777777--|
-xxxxxxxx----------------xx--xxxxxxxx-------------------|

Chorus:

'Remember how we started...'

--------------------------------------------------|
-----------------55555555555555-------------------|
-444444444444-22-66666666666666-------------------|
-444444444444-44-77777777777777-------------------|
-222222222222-44-77777777777777-------------------|
-xxxxxxxxxxxx-xx----------------------------------|

'Since then I'm a fool'

-000000000000-------------------------------------|
-000000000000--------------5555555555555----------|
-111111111111-444444444444-6666666666666----------|
-222222222222-444444444444-7777777777777----------|
-222222222222-222222222222-7777777777777----------|
-000000000000-xxxxxxxxxxxx------------------------|

'In a world called catastrophe...'

--------------------00000000-00000000-00000000-00000000--|
--------------------00000000-00000000-00000000-00000000--|
-444444444-22222222-11111111-11111111-11111111-11111111--|
-444444444-44444444-22222222-22222222-22222222-22222222--|
-222222222-44444444-22222222-22222222-22222222-22222222--|
-xxxxxxxxx----------00000000-00000000-00000000-00000000--|

Outro:

-----------7/////////---12-11----------------------------|
--4-5-4-5---------------------9--------------------------|
---------------------------------11^11/9~~~~~~~~~~~------|
---------------------------------------------------------|
---------------------------------------------------------|
---------------------------------------------------------|

if you listen real close, you can pick out some harmonics along
with the keyboards, and im so sorry, but i havent quite got the
lead part for the bridge, but hopefully this is enough for now,
seems like most other tabs dont have any of the lead guitar, so
hopefully you can be patient... thanks for getting this far....

comments ? insults ? words of inspiration or even remorse ?
email: woger_007@hotmail.com


for the lead in the bridge, try something around these notes:

-------------------------12-11--------------------|
-4-5--12-9---------------------9------------------|
-----------11~11-9-11-13---------11^11-9----------|
--------------------------------------------------|
--------------------------------------------------|
--------------------------------------------------|
Tap to rate this tab
# A B C D E F G H I J K L M N O P Q R S T U V W X Y Z