Song name
# A B C D E F G H I J K L M N O P Q R S T U V W X Y Z

Matthew Good - Born Losers tab

Song: Born Losers
Artist: Matthew Good
Album: Hospital Music
Tabbed By: Wade Ouellet
Section: Tab/Chords
Tuning: Eb Ab Db Gb Bb Eb

Intro:
|---3--333------------------------------|
|---3--333-----------1-1--111----1------|
|---0--000-----------0-0--000--2---2----| x6
|---0--000-----------2-2--222-3-3---3---|
|---2--222-0-00-3-33-3-3--333-----------|
|-3-3--333------------------------------|

Interlude:
Guitar 1:
|------------------------|
|-----------3------------|
|-4----5---------4/5-5---| x2
|---5----5----5--x/x-x---|
|----------------2/3-3---|
|------------------------|

Guitar 2: G A C F

Verse:
Guitar 1:
|----------------------|
|-----------3----5-----|
|-4----5---------------|
|---5----5----5----5---|
|----------------------|
|----------------------|

|------------------------|
|-----------3------------|
|-4----5---------4/5-5---|
|---5----5----5--x/x-x---|
|----------------2/3-3---|
|------------------------|

Guitar 2: G A C F

Chorus: A C G F / A C G F / C G A C G F / A C G F

Verse 2: same

Chorus: same

Bridge Pt. 1:
Guitar 1:
|-----------------------|
|--------10-10---10-8---|
|-10-9-9-x--x--9-x--x---|
|-x--x-x-7--7--x-7--5---|
|-8--7-7-------7--------|
|-----------------------|

Guitar 2: F E E D D E D C

Bridge Pt. 2: 
Guitar 1:
|-------------------------|
|-------------------------|
|-------0---------4/5-5---|
|-----0-----------x/x-x---|
|---2-------------2/3-3---|
|-3-----------------------|

Guitar 2: G F A / G F A / G F A

Interlude:
Guitar 1:
|------------------------|
|-----------3------------|
|-4----5---------4/5-5---| x2
|---5----5----5--x/x-x---|
|----------------2/3-3---|
|------------------------|

Guitar 2: G A C F / G A C F

Outro: same as intro
Tap to rate this tab
 
# A B C D E F G H I J K L M N O P Q R S T U V W X Y Z