Song name
# A B C D E F G H I J K L M N O P Q R S T U V W X Y Z

Matthew Good - Black Helicopters tab

just the main riff i was just fiddling and came up with this it's a start to one of his
new songs "Black Helicopters" great great great song!!!!!!!!!!

this is the second guitar part...... not sure of the chords.....

TUNED DOWN 1/2 STEP!!!!!!!!!!!!

main riff there is a variation                                                       2nd major vairiation
e--------------------------------------------||-------------------------------
b--------------------------------------------||-------------------------------
g--------5-----7-----9---10101010--9--7--5--||----101010-10s12-10-9-7------
d---5h7----5h7--5h7-------------------------||------------------------------
a--------------------------------------------||------------------------------
E--------------------------------------------||-----------------------------

near the end....

e----------------------
b-------------------5--
g----------------------
d-------5-------7------
a---5h7----5h7---------
E-----------------------
Tap to rate this tab
# A B C D E F G H I J K L M N O P Q R S T U V W X Y Z