Guitaretab - guitar tabs
Song name
# A B C D E F G H I J K L M N O P Q R S T U V W X Y Z

Matthew Good - A Single Explosion tab

Highlighted       Show chord diagrams
G           G/F#      Em    D
I dreamt last night of sirens
   C                D
By flashlight I had found you
A
You just held my hand
       C                    D
By the bright lights in some ICU
         A
Even the planless have a plan
G      G/F#  Em          D
I canít write love songs when Iím on these things
C           D
Iím affable, responsible
    A
But hard to be around
       C                     D
Itís correctible and theyíre right you know
        A
Itís as easy as it sounds
        C                 D                 A
Itís as easy as it sounds
            C                 D                A
Itís all as easy as it sounds

Interlude:
G G/F# Em D C D A C D A
[ Tab from: http://www.guitaretab.com/m/matthew-good/93301.html ]
|-------------------------------|
|-------------------------------|
|---12---------12---------------| x3
|-------12---------12---12-12---|
|-10--10------9---9----9--9-----|
|-------------------------------|

|---------------------------|
|---------------------------|
|-14-14-14-14-14-14-14-14---| x2
|-x--x--x--x--x--x--x--x----|
|-12-12-12-12-12-12-12-12---|
|---------------------------|

|-------------------------------|
|-------------------------------|
|---12---------12---------------|
|-------12---------12---12-12---|
|-10--10------9---9----9--9-----|
|-------------------------------|

|---------------------------|
|---------------------------|
|-14-14-14-14-14-14-14-14---| x2
|-x--x--x--x--x--x--x--x----|
|-12-12-12-12-12-12-12-12---|
|---------------------------|


G            G/F#    Em       D
I dreamt last night I saw you
  C            D               A
A single spark explosion negotiating with the dead
       C                     D
By the bright lights in some ICU
      A
On my chest you put your head
         C
And said there you are
D
There you are
A
Thereís my heart
Related for A Single Explosion tab