Song name
# A B C D E F G H I J K L M N O P Q R S T U V W X Y Z

Matthew Good - 99 Of Us Is Failure tab

Song: 99% Of Us Is Failure
Artist: Matthew Good
Album: Hospital Music
Tabbed By: Wade Ouellet
Section: Tab/Chords
Tuning: Eb Ab Db Gb Bb Eb

Intro/Verse (normally played on keyboard):
|----------------|
|----------------|
|-------2--------| x4
|----2-------4---|
|-4--------2-----|
|----------------|

|---------------------|
|---------------------|
|------4-------4------|
|-4--2------2-----4---|
|---------------------|
|---------------------|

(switches to bass)
Guitar plays B chord

|------------------------------|
|--------------------------7---|
|-----2-----------2----4---6---|
|---2------4----2------4-444---|
|-4------2----4------222-------|
|------------------------------|

|---------------------|
|---------------------|
|------4-------4------|
|-4--2------2-----4---|
|---------------------|
|---------------------|

Chorus:
F# A B / F# A B

Post-Chorus:
|-----------------------------------|
|-----------------------------------|
|-----2-------4-------4-------4-----|
|---2---2-2-4---4---4---4---4---4---|
|-0---------------2-------2---------|
|-----------------------------------|

|---------------------|
|---------------------|
|-----2-------4---4---|
|---2---2-2-4---4-4---|
|-0---------------2---|
|---------------------|

Fill:
|------------------|
|-4h5p4-7--5-4-2---|
|------------------|
|------------------|
|------------------|
|------------------|

Bridge:
|----------------------------------|
|----------------------------------|
|--------------------2-------2-----|
|---2---2-----2----2---2---2---2---|
|-0---4-----0----4-------4---------|
|----------------------------------|

|----------------------------------|
|----------------------------------|
|----------------------2-----2-----|
|---2---2----------2-------2---2---|
|-0---4-------0--4---4---4---------|
|----------------------------------|

|--------------------------------------|
|------------2h3p2---------------------|
|-------------------------2------------|
|-----2-2-------------2----------2-----|
|-0-4------4--------0---0----0-2---2---|
|--------------------------------------|

|------------------------------------|
|------------------------------------|
|-------2----2----------2------------|
|---2----------2----2----------2-----|
|-0---0----0------0---0----0-2---2---|
|------------------------------------|

|-----0-----0---------0-------0-----|
|-----------------------------------|
|-------4-----4---------4-------4---|
|---4-----------4---4-------4-------|
|-2-------2-------2-------2---------|
|-----------------------------------|

Verse: same

Chorus: same

Post-Chorus: same

Bridge: same
Tap to rate this tab
# A B C D E F G H I J K L M N O P Q R S T U V W X Y Z