Song name
# A B C D E F G H I J K L M N O P Q R S T U V W X Y Z

Matthew Jay - Let Your Shoulders Fall tab

Artist: Matthew Jay
Song: Let your shoulders fall
Album: Draw
Transcribed By: Rivets andy@rivets.swinternet.co.uk

I think this is a pretty close transciption. Email me if you have any queries.

Intro: Gtr 1
E--3-3-3--3-3-3-3-3-3-3-3-2-2-2-2-2-0-0-0-0-0-0-0----|
B--3-3-3--3-2-2-2-2-2-2-2-1-1-1-1-1-1-1-1-1-1-1-1----| 
G--0-0-0--0-0-0-0-0-0-0-0-0-0-0-0-0-0-0-0-0-0-0-0----| 
D----------------------------------------------------| 	X2
A----------------------------------------------------| 
E----------------------------------------------------| 

Gtr 2 (Second time only)
E----------------------------------------------------| 	2nd time
B-12--------15------------13-------13----------------| 

Verse:
G							 			   Em7
I'm reaching deep within myself. I'm trying to tell you what I know
						                  G
I even kept the photograph.. Of when I nearly let you go
			    						    Em7
You separate your love from me. From every single one you had
							  Em
Away with all that's gone before. Let your shoulders fall

Chorus:
Am						 D
I'm coming for your love today. It's lucky that you came this way
    Em			     E
I'm loving how I think about you now
    Am				     D
For many years it's been so slow. And only now we start to now
     Em		 C
Just what it is to shoot out of our minds

Tab sequence:  Gtr 1
E--3-3-3--3-3-3-3-3-3-3-3-2-2-2-2-2-0-0-0-0-0-0-0----| 
B--3-3-3--3-2-2-2-2-2-2-2-1-1-1-1-1-1-1-1-1-1-1-1----| 
G--0-0-0--0-0-0-0-0-0-0-0-0-0-0-0-0-0-0-0-0-0-0-0----| 
D----------------------------------------------------| 	X2
A----------------------------------------------------| 
E----------------------------------------------------| 

Gtr 2 (Second time only)
E--7-----10---------------8---------8----------------|(2nd time only)
B----------------------------------------------------| 
G----------------------------------------------------| 
D-/9-9-9--9-7-7-7-7-7-7-7-7-7-7-7-7-5-5-5-5-5-5-5----| 
A----------------------------------------------------| 
E----------------------------------------------------|

Verse 2: 
G									  Em7
I'm shaking like a newborn tree. My idol left without a trace.
							        
I never thought you'd understand. 
					    G
You licked the tears right off my face
						   				Em7
I couldn,t trust the telephone. It doesn't say the lies you mean
							Em
Away with all whats gone before. Let your shoulders fall.

Chorus (See above)

Tab sequence: Gtr 1
E--3-3-3--3-3-3-3-3-3-3-3-2-2-2-2-2-0-0-0-0-0-0-0----| 
B--3-3-3--3-2-2-2-2-2-2-2-1-1-1-1-1-1-1-1-1-1-1-1----| 
G--0-0-0--0-0-0-0-0-0-0-0-0-0-0-0-0-0-0-0-0-0-0-0----| 
D----------------------------------------------------| 	X2
A----------------------------------------------------| 
E----------------------------------------------------| 

Gtr 2 (Second time only)
E--7-----10---------------8---------8----------------|(2nd time only)
B----------------------------------------------------| 
G----------------------------------------------------| 
D-/9-9-9--9-7-7-7-7-7-7-7-7-7-7-7-7-5-5-5-5-5-5-5----| 
A----------------------------------------------------| 
E----------------------------------------------------|

Bridge:
C	   G	           C	G
Waves of sadness came. On the beach today
C	         G		    D		         C	Pause
Hold on now it won't be long. Till I'm on my way

Verse 3:
G									   Em7
I'm home for national holiday. Lets hook up in a coffee bar.
								        
Won't you bring your friend who's lost in space. 
					G
Don't worry if it's not your car
						           			   Em7
I'm joking and I think you know. I love it when you're playing dumb.

				                   Em
Away with all that's gone before. Let your shoulders fall

Chorus (See above)

Tab sequence: Gtr 1
E--3-3-3--3-3-3-3-3-3-3-3-2-2-2-2-2-0-0-0-0-0-0-0----| 
B--3-3-3--3-2-2-2-2-2-2-2-1-1-1-1-1-1-1-1-1-1-1-1----| 
G--0-0-0--0-0-0-0-0-0-0-0-0-0-0-0-0-0-0-0-0-0-0-0----| 
D----------------------------------------------------| 	X2
A----------------------------------------------------| 
E----------------------------------------------------| 

Gtr 2 (Second time only)
E--7-----10---------------8---------8----------------|(2nd time only)
B----------------------------------------------------| 
G----------------------------------------------------| 
D-/9-9-9--9-7-7-7-7-7-7-7-7-7-7-7-7-5-5-5-5-5-5-5----| 
A----------------------------------------------------| 
E----------------------------------------------------|

End Sequence: This sequence runs for quite a while with a few minor variation of chord change

Am - G - Am - G - Am - G - D (Oooooh ooooo over this)

Am - G - D  x 6  (Ooooh oooo over these)

Am - G - D  (to fade. No voice)



Good luck!
Tap to rate this tab
# A B C D E F G H I J K L M N O P Q R S T U V W X Y Z