Song name
# A B C D E F G H I J K L M N O P Q R S T U V W X Y Z

Matthew Jay - Call My Name Out tab

Matthew Jay - 'Call My Name Out'
From 'Draw'

Tabbed by Worzell


Riff 1

e|------------------------------------------|
B|-----------2--------------------3---------|
G|-2-2-2-0-2---2-0-2-0--2-2-2-0-2---2-0-2-0-|
D|------------------------------------------|
A|------------------------------------------|
E|------------------------------------------|

Riff 2

e|------------------------------------------|
B|------------------------------------------|
G|------------------------------------------|
D|---------7-9b10-7----------7-9b10-7-------|
A|-------7----------9--5-7/9----------9-----|
E|-5-7/9------------------------------------|


A                            D
I wanna be in your life, you turn me on
                   A (Riff 1)
With your crooked smile
A                         D
Whenever I look at you, I feel as though
                   A (Riff 1)
It's all coming right
A                            D
Love isn't the only thing that's on your mind
                   A (Riff 1)
With that crooked smile


G   G/F# Em
Call my name out

   G   G      G/F#    Em
e|------------------------------------------|
B|------10-10-10-10--10-10------------------|
G|-9/11--------------------11-9-11-9--------|
D|------------------------------------------|
A|------------------------------------------|
E|------------------------------------------|

G   G/F# Em
Call my name out

Riff 2 X2

She's never available, she'll tell you why
With her crooked smile
I know all about the past she wants to hide
But I couldn't care
Pain, love on a window sill
Collected up in her crooked smile

Call my name out
Call my name out

Hey na na na na na, na hey na na, yey hey yeah
Hey na na na na na, na hey na na, yey hey yeah

Call my name out
Call my name out

I wanna be in your life, you turn me on
Whenever I look at you, I feel as though
It's all coming right

Hey na na na na na, na hey na na
Tap to rate this tab
# A B C D E F G H I J K L M N O P Q R S T U V W X Y Z