Song name
# A B C D E F G H I J K L M N O P Q R S T U V W X Y Z

Matthew Koma - Years tab

-------------------------------------------------------------------------------
                             Years Extended Vocal Mix - Alesso, Matthew Koma
-------------------------------------------------------------------------------
Tabbed by: NugatiixHD
E-mail: NugatiixHD@gmail.com

Tuning: Standard

This is my first tab so be nice! :)

INTRO: x8

e|------------------------------------------------------------------------------|
B|------------------------------------------------------------------------------|
G|-9-9--11-12-11-12--7-7--11-12-11-12--7-7--11-12-11--5-------------------------|
D|------------------------------------------------------------------------------|
A|------------------------------------------------------------------------------|
E|------------------------------------------------------------------------------|

Then I like to play: x8
e|---------------------------------------------------------------------------|
B|---------------------------------------------------------------------------|
G|-9-9-9-9-9-9-9-9--7-7-7-7-7-7-7-7--12-12-12-12-12-12-12-12--11-11-11-11-11-|
D|---------------------------------------------------------------------------|
A|---------------------------------------------------------------------------|
E|---------------------------------------------------------------------------|

e|---------------------------------------------------------------------------|
B|---------------------------------------------------------------------------|
G|-11-11-11------------------------------------------------------------------|
D|---------------------------------------------------------------------------|
A|---------------------------------------------------------------------------|
E|---------------------------------------------------------------------------|
And then again: x6
e|------------------------------------------------------------------------------|
B|------------------------------------------------------------------------------|
G|-9-9--11-12-11-12--7-7--11-12-11-12--7-7--11-12-11--5-------------------------|
D|------------------------------------------------------------------------------|
A|------------------------------------------------------------------------------|
E|------------------------------------------------------------------------------|
Tap to rate this tab
# A B C D E F G H I J K L M N O P Q R S T U V W X Y Z