Matthew Mayfield - Razorblade tab

This is one of my favorite songs by this amazing guitarist. This is how he plays 
it live and acoustic.

eb|---x---x---x---x---x---x-----|
Bb|---8---8---8---8---8---8-----|
Gb|---0---0---0---0---0---0-----|
Db|---10--10--10--9---9---9-----|  x3
Ab|---x---x---x---x---x---x-----|
Eb|---x---x---x---x---x---x-----|

eb|---x---x---x---x---x---x-|
Bb|---8---8---8---8---8---8-|
Gb|---0---0---0---0---0---0-|
Db|---0---0-------0-------0-|
Ab|---9---9-------9-------9-|
Eb|---x---x-------x-------x-|

Repeat this as many times as you want for the intro; this is also used for the verse. Enjoy!
Tap to rate this tab
 
# A B C D E F G H I J K L M N O P Q R S T U V W X Y Z