Song name
# A B C D E F G H I J K L M N O P Q R S T U V W X Y Z

Matthew Mole - Take Yours Ill Take Mine tab

Take Yours, I'll take mine- Matthew Mole

The original is played with a banjo but I transcribed it into a guitar version. Hope you enjoy!

Standard tuning
No capo

Intro/ Bridge/ verse 1 x6

e|-11------11---11-------11---11--------11---11--------11------|
B|-------11-----------11-------------11-------------11---------|
G|-----12-----------12-------------13-------------13-----------|
D|-------------------------------------------------------------|
A|-------------------------------------------------------------|
E|-------------------------------------------------------------|

e|-11-------11---11-------11---10------10---10-------10--------|
B|-------11-------------11------------11-----------11----------|
G|-----12-------------12------------10-----------10------------|
D|-------------------------------------------------------------|
A|-------------------------------------------------------------|
E|-------------------------------------------------------------|


CHORUS x4
(Plucking each chord four times)

	 C	Ab	Eb	B
e|-------8------11------6-------6------------------------------|
B|-------8------13------8-------6------------------------------|
G|-------8------13------8-------7------------------------------|
D|-------10-----13------8-------8------------------------------|
A|-------10-----11------6-------8------------------------------|
E|-------8------x-------x-------6------------------------------|


Intro/ Bridge x2


Verse 2	x4
(Each part plucked 4 times)
e|-----8--|----11--|----6---|----6-----------------------------|
B|-----8--|----13--|----8---|----6-----------------------------|
G|-----8--|----13--|----8---|----7-----------------------------|
D|--------|--------|--------|----------------------------------|
A|--------|--11----|--6-----|----------------------------------|
E|---8----|--------|--------|---6------------------------------|


CHORUS 2 & 3- combine both chorus and interlude parts with two guitars

INTERLUDE- Palming C Ab Eb B

CHROUS 3

End

Stay Classy San Diego ;)
Tap to rate this tab
 
# A B C D E F G H I J K L M N O P Q R S T U V W X Y Z