Song name
# A B C D E F G H I J K L M N O P Q R S T U V W X Y Z

Matthew Mole - Take Yours Ill Take Mine tab

-------------------------------------------------------------------------------
              Take Yours, I'll Take Mine - Matthew Mole
-------------------------------------------------------------------------------
Tabbed by: Elijah Paulsen
E-mail: Ej@5dmedia.ca

Heard this song and 3 minutes later already had it figured out from my ear and it sounds 
identical. First tab, hope you like it!
Tuning:
Standard tuning
Capo on 8th fret
~ - that sign means let it ring

e|--3------3-----------3-----3-------3----------3----------------------------|
b|-------0-----------0-----0-------1-----------1-------1---------------------|
g|-----0-------0--0-----0-------0-------0--0-------0-------------------------|
d|---------------------------------------------------------------------------|
a|---------------------------------------------------------------------------|
e|---------------------------------------------------------------------------|

e|--3------3-----------3-----2-------2----------2----------------------------|
b|-------3-----------3-----3-------3-----------3-------3---------------------|
g|-----0-------0--0-----0-------0-------0--0-------0-------------------------|
d|---------------------------------------------------------------------------|
a|---------------------------------------------------------------------------|
e|---------------------------------------------------------------------------|

Thats the main riff(intro and verse)

e|-------3--3-----3--3-----3--3-----3--3-----3--3-----3--3-----2--2-----2--2--------------|
b|-----0--------0---------1---------1--------3---------3--------3---------3---------------|
g|--0-----0--0-----0--0-----0--0-----0--0-----0--0-----0--0-----0--0-----0----------------|
d|----------------------------------------------------------------------------------------|
a|----------------------------------------------------------------------------------------|
e|----------------------------------------------------------------------------------------|

e|-------3--3-----3--3-----3--3-----3--3-----3--3-----3--3-----2--2-----2--2--------------|
b|-----0--------0---------1---------1--------3---------3--------3---------4---------------|
g|--0-----0--0-----0--0-----0--0-----0--0-----0--0-----0--0-----0--0-----0----------------|
d|----------------------------------------------------------------------------------------|
a|----------------------------------------------------------------------------------------|
e|----------------------------------------------------------------------------------------|

e|-------3--3-----3--3-----3--3-----3--3-----3--3-----3--3-----2--2-----2--2--------------|
b|-----0--------0---------1---------1--------3---------3--------3---------3---------------|
g|--0-----0--0-----0--0-----0--0-----0--0-----0--0-----0--0-----0--0-----0----------------|
d|----------------------------------------------------------------------------------------|
a|----------------------------------------------------------------------------------------|
e|----------------------------------------------------------------------------------------|

e|-------3--3-----3--3-----3--3-----3--3-----3--3-----3--3-----2--2-----2--2--------------|
b|-----0--------0---------1---------1--------3---------3--------3---------3---------------|
g|--0-----0--0-----0--0-----0--0-----0--0-----0--0-----0--0-----0--0-----0----------------|
d|----------------------------------------------------------------------------------------|
a|----------------------------------------------------------------------------------------|
e|----------------------------------------------------------------------------------------|

Thats how you play the bridge

e|--0---0---0---0---0---0---0---0----------------------2---2---2---2---------------|
b|--0---0---0---0---1---1---1---1---3---3---3---3---3---3---3---3------------------|
g|---------------------------------------0---0---0---0-----------------------------|
d|---------------------------------------------------------------------------------|
a|---------------------------------------------------------------------------------|
e|---------------------------------------------------------------------------------|

e|--0---0---0---0---0---0---0---0----------------------2---2---2---2---------------|
b|--0---0---0---0---1---1---1---1---3---3---3---3---3---3---4---4------------------|
g|---------------------------------------0---0---0---0-----------------------------|
d|---------------------------------------------------------------------------------|
a|---------------------------------------------------------------------------------|
e|---------------------------------------------------------------------------------|

e|--0---0---0---0---0---0---0---0----------------------2---2---2---2---------------|
b|--0---0---0---0---1---1---1---1---3---3---3---3---3---3---3---3------------------|
g|---------------------------------------0---0---0---0-----------------------------|
d|---------------------------------------------------------------------------------|
a|---------------------------------------------------------------------------------|
e|---------------------------------------------------------------------------------|

e|--0---0---0---0---0---0---0---0----------------------2~--------------------------|
b|--0---0---0---0---1---1---1---1---3---3---3---3---3~-----------------------------|
g|---------------------------------------0---0---0---0-----------------------------|
d|---------------------------------------------------------------------------------|
a|---------------------------------------------------------------------------------|
e|---------------------------------------------------------------------------------|

Then the chorus always follows that pattern but below I have
the one for the second chorus which is a little different than
the other 2

e|----0---0---0---0---0---0---0---0----------------------2---2---2---2-------------|
b|--0---0---0---0---1---1---1---1-----3---3---3---3-3---3---3---3------------------|
g|---------------------------------------0---0---0---0-----------------------------|
d|---------------------------------------------------------------------------------|
a|---------------------------------------------------------------------------------|
e|---------------------------------------------------------------------------------|

e|----0---0---0---0---0---0---0---0----------------------2---2---2---2-------------|
b|--0---0---0---0---1---1---1---1-----3---3---3---3-3---3---4---4------------------|
g|---------------------------------------0---0---0---0-----------------------------|
d|---------------------------------------------------------------------------------|
a|---------------------------------------------------------------------------------|
e|---------------------------------------------------------------------------------|

e|----0---0---0---0---0---0---0---0----------------------2---2---2---2-------------|
b|--0---0---0---0---1---1---1---1-----3---3---3---3-3---3---3---3------------------|
g|---------------------------------------0---0---0---0-----------------------------|
d|---------------------------------------------------------------------------------|
a|---------------------------------------------------------------------------------|
e|---------------------------------------------------------------------------------|

e|----0---0---0---0---0---0---0---0----------------------2---2---2---2-------------|
b|--0---0---0---0---1---1---1---1-----3---3---3---3-3---3---3---3------------------|
g|---------------------------------------0---0---0---0-----------------------------|
d|---------------------------------------------------------------------------------|
a|---------------------------------------------------------------------------------|
e|---------------------------------------------------------------------------------|

Thanks for checking it out! hope you like it
PS. i just turned 13 and and did all this by ear
Tap to rate this tab
 
# A B C D E F G H I J K L M N O P Q R S T U V W X Y Z