Matthew Morrison - Hey tab

Hi!
I tried to find the tabs for this really nice song, but didn't find anyone.
So I decided to do it myself instead. I know all this made a long tab-list, 
but I wanted it to be as perfect as it could.

I also made this song with Chords, if you don't like playing by Tabs.
(same name as this, but you can find it under "Chords" instead)

If there is anything you do not understand, please send me a mail :)

Please enjoy!



Song: Hey
Artist: Matthew Morrison
Album: Matthew Morrison
Year: 2011

Tuning: normal

 * You will find guitar 1 here on the top, and guitar 2 further down
   Though you can play with only one guitar if you like. Sounds great too!

     x = muted string
     ~ = vibrato
     x e|-7--... = mute the tone once you have hit it, this concern the 
                   whole length of tones


*** Guitar 1 ***

Guitar 1:
Intro:
e |-------14---12---|--11-------------||-------14---12---|--11--------11---|
B |--12-------------|-------14---12---||-----------------|-------14--------|
G |-----------------|-----------------||--13-------------|-----------------|
D |-----------------|-----------------||-----------------|-----------------|
A |-----------------|-----------------||-----------------|-----------------|
E |-----------------|-----------------||-----------------|-----------------|
                                                                         x2

Vers:
e |-----------------|-----------------||-------14---12---|--11--------11---|
B |--12-------------|--11-------------||-----------------|-------14--------|
G |-----------------|-----------------||--13-------------|-----------------|
D |-----------------|-----------------||-----------------|-----------------|
A |-----------------|-----------------||-----------------|-----------------|
E |-----------------|-----------------||-----------------|-----------------|
                                                                         x2
e |-------14---12---|--11-------------||-------14---12---|--11--------11---|
B |--12-------------|-------14---12---||-----------------|-------14--------|
G |-----------------|-----------------||--13-------------|-----------------|
D |-----------------|-----------------||-----------------|-----------------|
A |-----------------|-----------------||-----------------|-----------------|
E |-----------------|-----------------||-----------------|-----------------|
                                                                         x1
e |-------14---12---|--11-------------||-----------------|-----------------|
B |--12-------------|-------14---12---||-----------------|-----------------|
G |-----------------|-----------------||--13-------------|-----------------|
D |-----------------|-----------------||-----------------|-----------------|
A |-----------------|-----------------||-----------------|-----------------|
E |-----------------|-----------------||-----------------|-----------------|
                                                                         x1

Ref:     (B)               (F#)             (G#m)              (E)
e |-7----7--7-7--7--|-2----2---2---2--||-4----4--4-4--4--|-7----7---7---7--|
B |-7----7--7-7--7--|-2----2---2---2--||-4----4--4-4--4--|-9----9---9---9--|
G |-8----8--8-8--8--|-3----3---3---3--||-4----4--4-4--4--|-9----9---9---9--|
D |-9----9--9-9--9--|-4----4---4---4--||-6----6--6-6--6--|-9----9---9---9--|
A |-9----9--9-9--9--|-4----4---4---4--||-6----6--6-6--6--|-7----7---7---7--|
E |-7----7--7-7--7--|-2----2---2---2--||-4----4--4-4--4--|-x----x---x---x--|
                                                                         x3
         (B)               (F#)              (G#m)              (E)
x e|-7----7--7-7--7--|-2----2---2---2--||-4----4--4-4--4--|-7----7---7---7--|
x B|-7----7--7-7--7--|-2----2---2---2--||-4----4--4-4--4--|-9----9---9---9--|
x G|-8----8--8-8--8--|-3----3---3---3--||-4----4--4-4--4--|-9----9---9---9--|
x D|-9----9--9-9--9--|-4----4---4---4--||-6----6--6-6--6--|-9----9---9---9--|
x A|-9----9--9-9--9--|-4----4---4---4--||-6----6--6-6--6--|-7----7---7---7--|
x E|-7----7--7-7--7--|-2----2---2---2--||-4----4--4-4--4--|-x----x---x---x--|

x e|-7----7--7-7--7--|-2----2---2---2--||-4----4--4-4--4--|-7---------------|
x B|-7----7--7-7--7--|-2----2---2---2--||-4----4--4-4--4--|-9---------------|
x G|-8----8--8-8--8--|-3----3---3---3--||-4----4--4-4--4--|-9---------------|
x D|-9----9--9-9--9--|-4----4---4---4--||-6----6--6-6--6--|-9---------------|
x A|-9----9--9-9--9--|-4----4---4---4--||-6----6--6-6--6--|-7---------------|
x E|-7----7--7-7--7--|-2----2---2---2--||-4----4--4-4--4--|-x---------------|
                                                                         x1

After Ref: (short piece of the intro)
e |-------14---12---|--11-------------||-------14---12---|--11--------11---|
B |--12-------------|-------14---12---||-----------------|-------14--------|
G |-----------------|-----------------||--13-------------|-----------------|
D |-----------------|-----------------||-----------------|-----------------|
A |-----------------|-----------------||-----------------|-----------------|
E |-----------------|-----------------||-----------------|-----------------|
                                                                         x1

Vers:
e |-----------------|-----------------||-------14---12---|--11--------11---|
B |--12-------------|--11-------------||-----------------|-------14--------|
G |-----------------|-----------------||--13-------------|-----------------|
D |-----------------|-----------------||-----------------|-----------------|
A |-----------------|-----------------||-----------------|-----------------|
E |-----------------|-----------------||-----------------|-----------------|
                                                                         x3
e |-----------------|-----------------||-----------------|-----------------|
B |--12-------------|--11-------------||-----------------|-----------------|
G |-----------------|-----------------||--13-------------|-----------------|
D |-----------------|-----------------||-----------------|-----------------|
A |-----------------|-----------------||-----------------|-----------------|
E |-----------------|-----------------||-----------------|-----------------|
                                                                         x1

Ref:     (B)               (F#)             (G#m)              (E)
e |-7----7--7-7--7--|-2----2---2---2--||-4----4--4-4--4--|-7----7---7---7--|
B |-7----7--7-7--7--|-2----2---2---2--||-4----4--4-4--4--|-9----9---9---9--|
G |-8----8--8-8--8--|-3----3---3---3--||-4----4--4-4--4--|-9----9---9---9--|
D |-9----9--9-9--9--|-4----4---4---4--||-6----6--6-6--6--|-9----9---9---9--|
A |-9----9--9-9--9--|-4----4---4---4--||-6----6--6-6--6--|-7----7---7---7--|
E |-7----7--7-7--7--|-2----2---2---2--||-4----4--4-4--4--|-x----x---x---x--|
                                                                         x3
         (B)               (F#)              (G#m)              (E)
x e|-7----7--7-7--7--|-2----2---2---2--||-4----4--4-4--4--|-7----7---7---7--|
x B|-7----7--7-7--7--|-2----2---2---2--||-4----4--4-4--4--|-9----9---9---9--|
x G|-8----8--8-8--8--|-3----3---3---3--||-4----4--4-4--4--|-9----9---9---9--|
x D|-9----9--9-9--9--|-4----4---4---4--||-6----6--6-6--6--|-9----9---9---9--|
x A|-9----9--9-9--9--|-4----4---4---4--||-6----6--6-6--6--|-7----7---7---7--|
x E|-7----7--7-7--7--|-2----2---2---2--||-4----4--4-4--4--|-x----x---x---x--|

x e|-7----7--7-7--7--|-2----2---2---2--||-4----4--4-4--4--|-7---------------|
x B|-7----7--7-7--7--|-2----2---2---2--||-4----4--4-4--4--|-9---------------|
x G|-8----8--8-8--8--|-3----3---3---3--||-4----4--4-4--4--|-9---------------|
x D|-9----9--9-9--9--|-4----4---4---4--||-6----6--6-6--6--|-9---------------|
x A|-9----9--9-9--9--|-4----4---4---4--||-6----6--6-6--6--|-7---------------|
x E|-7----7--7-7--7--|-2----2---2---2--||-4----4--4-4--4--|-x---------------|
                                                                         x1
         (B)               (F#)             (G#m)              (E)
e |-7~--------------|-2~--------------||-4~--------------|-7~--------------|
B |-7~--------------|-2~--------------||-4~--------------|-9~--------------|
G |-8~--------------|-3~--------------||-4~--------------|-9~--------------|
D |-9~--------------|-4~--------------||-6~--------------|-9~--------------|
A |-9~--------------|-4~--------------||-6~--------------|-7~--------------|
E |-7~--------------|-2~--------------||-4~--------------|-x~--------------|
                                                                         x3

After Ref: (short piece of the intro + a new part)
e |-------14---12---|--11-------------||-------14---12---|--11--------11---|
B |--12-------------|-------14---12---||-----------------|-------14--------|
G |-----------------|-----------------||--13-------------|-----------------|
D |-----------------|-----------------||-----------------|-----------------|
A |-----------------|-----------------||-----------------|-----------------|
E |-----------------|-----------------||-----------------|-----------------|

e |--11-------------|-----------------||--11--------11---|--12-------------|
B |-------12--------|--14-------------||-------12--------|-----------------|
G |------------11---|-----------------||-----------------|-----------------|
D |-----------------|-----------------||-----------------|-----------------|
A |-----------------|-----------------||-----------------|-----------------|
E |-----------------|-----------------||-----------------|-----------------|
                                                                         x1

Ref:     (B)               (F#)             (G#m)              (E)
e |-7----7--7-7--7--|-2----2---2---2--||-4----4--4-4--4--|-7----7---7---7--|
B |-7----7--7-7--7--|-2----2---2---2--||-4----4--4-4--4--|-9----9---9---9--|
G |-8----8--8-8--8--|-3----3---3---3--||-4----4--4-4--4--|-9----9---9---9--|
D |-9----9--9-9--9--|-4----4---4---4--||-6----6--6-6--6--|-9----9---9---9--|
A |-9----9--9-9--9--|-4----4---4---4--||-6----6--6-6--6--|-7----7---7---7--|
E |-7----7--7-7--7--|-2----2---2---2--||-4----4--4-4--4--|-x----x---x---x--|
                                                                         x3
         (B)               (F#)             (G#m)              (E)
x e|-7----7--7-7--7--|-2----2---2---2--||-4----4--4-4--4--|-7---------------|
x B|-7----7--7-7--7--|-2----2---2---2--||-4----4--4-4--4--|-9---------------|
x G|-8----8--8-8--8--|-3----3---3---3--||-4----4--4-4--4--|-9---------------|
x D|-9----9--9-9--9--|-4----4---4---4--||-6----6--6-6--6--|-9---------------|
x A|-9----9--9-9--9--|-4----4---4---4--||-6----6--6-6--6--|-7---------------|
x E|-7----7--7-7--7--|-2----2---2---2--||-4----4--4-4--4--|-x---------------|
                                                                         x1
         (B)               (F#)             (G#m)              (E)
e |-7----7--7-7--7--|-2----2---2---2--||-4----4--4-4--4--|-7----7---7---7--|
B |-7----7--7-7--7--|-2----2---2---2--||-4----4--4-4--4--|-9----9---9---9--|
G |-8----8--8-8--8--|-3----3---3---3--||-4----4--4-4--4--|-9----9---9---9--|
D |-9----9--9-9--9--|-4----4---4---4--||-6----6--6-6--6--|-9----9---9---9--|
A |-9----9--9-9--9--|-4----4---4---4--||-6----6--6-6--6--|-7----7---7---7--|
E |-7----7--7-7--7--|-2----2---2---2--||-4----4--4-4--4--|-x----x---x---x--|
                                                                         x3

 * One last time (now only guitar - no other instruments)
         (B)               (F#)             (G#m)              (E)
e |-7----7--7-7--7--|-2----2---2---2--||-4----4--4-4--4--|-7----7---7---7--|
B |-7----7--7-7--7--|-2----2---2---2--||-4----4--4-4--4--|-9----9---9---9--|
G |-8----8--8-8--8--|-3----3---3---3--||-4----4--4-4--4--|-9----9---9---9--|
D |-9----9--9-9--9--|-4----4---4---4--||-6----6--6-6--6--|-9----9---9---9--|
A |-9----9--9-9--9--|-4----4---4---4--||-6----6--6-6--6--|-7----7---7---7--|
E |-7----7--7-7--7--|-2----2---2---2--||-4----4--4-4--4--|-x----x---x---x--|
                                                                         x1

 * Finish the song by play the B-chord once:
e |-7---------------|
B |-7---------------|
G |-8---------------|
D |-9---------------|
A |-9---------------|
E |-7---------------|

_____________________________________________________________________________________


*** Guitar 2 ***

    B | F# | G#m | E  are the only chords used.
                      They come in the same order the whole song.

Guitar 2:
Intro:     (let the intro be played x1 (the empty space below) before you
            start playing the chords).
e |-----------------|-----------------||-----------------|-----------------|
B |-----------------|-----------------||-----------------|-----------------|
G |-----------------|-----------------||-----------------|-----------------|
D |-----------------|-----------------||-----------------|-----------------|
A |-----------------|-----------------||-----------------|-----------------|
E |-----------------|-----------------||-----------------|-----------------|

e |-7----7--7-7--7--|-2----2---2---2--||-4----4--4-4--4--|-7----7---7---7--|
B |-7----7--7-7--7--|-2----2---2---2--||-4----4--4-4--4--|-9----9---9---9--|
G |-8----8--8-8--8--|-3----3---3---3--||-4----4--4-4--4--|-9----9---9---9--|
D |-9----9--9-9--9--|-4----4---4---4--||-6----6--6-6--6--|-9----9---9---9--|
A |-9----9--9-9--9--|-4----4---4---4--||-6----6--6-6--6--|-7----7---7---7--|
E |-7----7--7-7--7--|-2----2---2---2--||-4----4--4-4--4--|-x----x---x---x--|  
                                                                         x1

Vers:    (B)               (F#)             (G#m)              (E)
e |-7----7--7-7--7--|-2----2---2---2--||-4----4--4-4--4--|-7----7---7---7--|
B |-7----7--7-7--7--|-2----2---2---2--||-4----4--4-4--4--|-9----9---9---9--|
G |-8----8--8-8--8--|-3----3---3---3--||-4----4--4-4--4--|-9----9---9---9--|
D |-9----9--9-9--9--|-4----4---4---4--||-6----6--6-6--6--|-9----9---9---9--|
A |-9----9--9-9--9--|-4----4---4---4--||-6----6--6-6--6--|-7----7---7---7--|
E |-7----7--7-7--7--|-2----2---2---2--||-4----4--4-4--4--|-x----x---x---x--|
                                                                         x3
         (B)               (F#)             (G#m)              (E)
e |-7----7--7-7--7--|-2----2---2---2--||-4----4--4-4--4--|-7---------------|
B |-7----7--7-7--7--|-2----2---2---2--||-4----4--4-4--4--|-9---------------|
G |-8----8--8-8--8--|-3----3---3---3--||-4----4--4-4--4--|-9---------------|
D |-9----9--9-9--9--|-4----4---4---4--||-6----6--6-6--6--|-9---------------|
A |-9----9--9-9--9--|-4----4---4---4--||-6----6--6-6--6--|-7---------------|
E |-7----7--7-7--7--|-2----2---2---2--||-4----4--4-4--4--|-x---------------|
                                                                         x1

Ref:     (B)               (F#)             (G#m)              (E)
e |-7----7--7-7--7--|-2----2---2---2--||-4----4--4-4--4--|-7----7---7---7--|
B |-7----7--7-7--7--|-2----2---2---2--||-4----4--4-4--4--|-9----9---9---9--|
G |-8----8--8-8--8--|-3----3---3---3--||-4----4--4-4--4--|-9----9---9---9--|
D |-9----9--9-9--9--|-4----4---4---4--||-6----6--6-6--6--|-9----9---9---9--|
A |-9----9--9-9--9--|-4----4---4---4--||-6----6--6-6--6--|-7----7---7---7--|
E |-7----7--7-7--7--|-2----2---2---2--||-4----4--4-4--4--|-x----x---x---x--|
                                                                         x3
         (B)               (F#)              (G#m)              (E)
x e|-7----7--7-7--7--|-2----2---2---2--||-4----4--4-4--4--|-7----7---7---7--|
x B|-7----7--7-7--7--|-2----2---2---2--||-4----4--4-4--4--|-9----9---9---9--|
x G|-8----8--8-8--8--|-3----3---3---3--||-4----4--4-4--4--|-9----9---9---9--|
x D|-9----9--9-9--9--|-4----4---4---4--||-6----6--6-6--6--|-9----9---9---9--|
x A|-9----9--9-9--9--|-4----4---4---4--||-6----6--6-6--6--|-7----7---7---7--|
x E|-7----7--7-7--7--|-2----2---2---2--||-4----4--4-4--4--|-x----x---x---x--|

x e|-7----7--7-7--7--|-2----2---2---2--||-4----4--4-4--4--|-7---------------|
x B|-7----7--7-7--7--|-2----2---2---2--||-4----4--4-4--4--|-9---------------|
x G|-8----8--8-8--8--|-3----3---3---3--||-4----4--4-4--4--|-9---------------|
x D|-9----9--9-9--9--|-4----4---4---4--||-6----6--6-6--6--|-9---------------|
x A|-9----9--9-9--9--|-4----4---4---4--||-6----6--6-6--6--|-7---------------|
x E|-7----7--7-7--7--|-2----2---2---2--||-4----4--4-4--4--|-x---------------|
                                                                          x1

After Ref:   (B)           (F#)             (G#m)              (E)
e |-7----7--7-7--7--|-2----2---2---2--||-4----4--4-4--4--|-7----7---7---7--|
B |-7----7--7-7--7--|-2----2---2---2--||-4----4--4-4--4--|-9----9---9---9--|
G |-8----8--8-8--8--|-3----3---3---3--||-4----4--4-4--4--|-9----9---9---9--|
D |-9----9--9-9--9--|-4----4---4---4--||-6----6--6-6--6--|-9----9---9---9--|
A |-9----9--9-9--9--|-4----4---4---4--||-6----6--6-6--6--|-7----7---7---7--|
E |-7----7--7-7--7--|-2----2---2---2--||-4----4--4-4--4--|-x----x---x---x--|
                                                                         x1

Vers:    (B)               (F#)             (G#m)              (E)
e |-7----7--7-7--7--|-2----2---2---2--||-4----4--4-4--4--|-7----7---7---7--|
B |-7----7--7-7--7--|-2----2---2---2--||-4----4--4-4--4--|-9----9---9---9--|
G |-8----8--8-8--8--|-3----3---3---3--||-4----4--4-4--4--|-9----9---9---9--|
D |-9----9--9-9--9--|-4----4---4---4--||-6----6--6-6--6--|-9----9---9---9--|
A |-9----9--9-9--9--|-4----4---4---4--||-6----6--6-6--6--|-7----7---7---7--|
E |-7----7--7-7--7--|-2----2---2---2--||-4----4--4-4--4--|-x----x---x---x--|
                                                                         x3
         (B)               (F#)             (G#m)              (E)
e |-7----7--7-7--7--|-2----2---2---2--||-4----4--4-4--4--|-7---------------|
B |-7----7--7-7--7--|-2----2---2---2--||-4----4--4-4--4--|-9---------------|
G |-8----8--8-8--8--|-3----3---3---3--||-4----4--4-4--4--|-9---------------|
D |-9----9--9-9--9--|-4----4---4---4--||-6----6--6-6--6--|-9---------------|
A |-9----9--9-9--9--|-4----4---4---4--||-6----6--6-6--6--|-7---------------|
E |-7----7--7-7--7--|-2----2---2---2--||-4----4--4-4--4--|-x---------------|
                                                                         x1

Ref:     (B)               (F#)             (G#m)              (E)
e |-7----7--7-7--7--|-2----2---2---2--||-4----4--4-4--4--|-7----7---7---7--|
B |-7----7--7-7--7--|-2----2---2---2--||-4----4--4-4--4--|-9----9---9---9--|
G |-8----8--8-8--8--|-3----3---3---3--||-4----4--4-4--4--|-9----9---9---9--|
D |-9----9--9-9--9--|-4----4---4---4--||-6----6--6-6--6--|-9----9---9---9--|
A |-9----9--9-9--9--|-4----4---4---4--||-6----6--6-6--6--|-7----7---7---7--|
E |-7----7--7-7--7--|-2----2---2---2--||-4----4--4-4--4--|-x----x---x---x--|
                                                                         x3
         (B)               (F#)              (G#m)              (E)
x e|-7----7--7-7--7--|-2----2---2---2--||-4----4--4-4--4--|-7----7---7---7--|
x B|-7----7--7-7--7--|-2----2---2---2--||-4----4--4-4--4--|-9----9---9---9--|
x G|-8----8--8-8--8--|-3----3---3---3--||-4----4--4-4--4--|-9----9---9---9--|
x D|-9----9--9-9--9--|-4----4---4---4--||-6----6--6-6--6--|-9----9---9---9--|
x A|-9----9--9-9--9--|-4----4---4---4--||-6----6--6-6--6--|-7----7---7---7--|
x E|-7----7--7-7--7--|-2----2---2---2--||-4----4--4-4--4--|-x----x---x---x--|

x e|-7----7--7-7--7--|-2----2---2---2--||-4----4--4-4--4--|-7---------------|
x B|-7----7--7-7--7--|-2----2---2---2--||-4----4--4-4--4--|-9---------------|
x G|-8----8--8-8--8--|-3----3---3---3--||-4----4--4-4--4--|-9---------------|
x D|-9----9--9-9--9--|-4----4---4---4--||-6----6--6-6--6--|-9---------------|
x A|-9----9--9-9--9--|-4----4---4---4--||-6----6--6-6--6--|-7---------------|
x E|-7----7--7-7--7--|-2----2---2---2--||-4----4--4-4--4--|-x---------------|
                                                                          x1
         (B)               (F#)             (G#m)              (E)
e |-7~--------------|-2~--------------||-4~--------------|-7~--------------|
B |-7~--------------|-2~--------------||-4~--------------|-9~--------------|
G |-8~--------------|-3~--------------||-4~--------------|-9~--------------|
D |-9~--------------|-4~--------------||-6~--------------|-9~--------------|
A |-9~--------------|-4~--------------||-6~--------------|-7~--------------|
E |-7~--------------|-2~--------------||-4~--------------|-x~--------------|
                                                                         x3

After Ref:   (B)           (F#)             (G#m)              (E)
e |-7----7--7-7--7--|-2----2---2---2--||-4----4--4-4--4--|-7----7---7---7--|
B |-7----7--7-7--7--|-2----2---2---2--||-4----4--4-4--4--|-9----9---9---9--|
G |-8----8--8-8--8--|-3----3---3---3--||-4----4--4-4--4--|-9----9---9---9--|
D |-9----9--9-9--9--|-4----4---4---4--||-6----6--6-6--6--|-9----9---9---9--|
A |-9----9--9-9--9--|-4----4---4---4--||-6----6--6-6--6--|-7----7---7---7--|
E |-7----7--7-7--7--|-2----2---2---2--||-4----4--4-4--4--|-x----x---x---x--|
                                                                         x2

Ref:     (B)               (F#)             (G#m)              (E)
e |-7----7--7-7--7--|-2----2---2---2--||-4----4--4-4--4--|-7----7---7---7--|
B |-7----7--7-7--7--|-2----2---2---2--||-4----4--4-4--4--|-9----9---9---9--|
G |-8----8--8-8--8--|-3----3---3---3--||-4----4--4-4--4--|-9----9---9---9--|
D |-9----9--9-9--9--|-4----4---4---4--||-6----6--6-6--6--|-9----9---9---9--|
A |-9----9--9-9--9--|-4----4---4---4--||-6----6--6-6--6--|-7----7---7---7--|
E |-7----7--7-7--7--|-2----2---2---2--||-4----4--4-4--4--|-x----x---x---x--|
                                                                         x3
         (B)               (F#)             (G#m)              (E)
x e|-7----7--7-7--7--|-2----2---2---2--||-4----4--4-4--4--|-7---------------|
x B|-7----7--7-7--7--|-2----2---2---2--||-4----4--4-4--4--|-9---------------|
x G|-8----8--8-8--8--|-3----3---3---3--||-4----4--4-4--4--|-9---------------|
x D|-9----9--9-9--9--|-4----4---4---4--||-6----6--6-6--6--|-9---------------|
x A|-9----9--9-9--9--|-4----4---4---4--||-6----6--6-6--6--|-7---------------|
x E|-7----7--7-7--7--|-2----2---2---2--||-4----4--4-4--4--|-x---------------|
                                                                         x1
         (B)               (F#)             (G#m)              (E)
e |-7----7--7-7--7--|-2----2---2---2--||-4----4--4-4--4--|-7----7---7---7--|
B |-7----7--7-7--7--|-2----2---2---2--||-4----4--4-4--4--|-9----9---9---9--|
G |-8----8--8-8--8--|-3----3---3---3--||-4----4--4-4--4--|-9----9---9---9--|
D |-9----9--9-9--9--|-4----4---4---4--||-6----6--6-6--6--|-9----9---9---9--|
A |-9----9--9-9--9--|-4----4---4---4--||-6----6--6-6--6--|-7----7---7---7--|
E |-7----7--7-7--7--|-2----2---2---2--||-4----4--4-4--4--|-x----x---x---x--|
                                                                         x3

 * One last time (now only guitar - no other instruments)
         (B)               (F#)             (G#m)              (E)
e |-7----7--7-7--7--|-2----2---2---2--||-4----4--4-4--4--|-7----7---7---7--|
B |-7----7--7-7--7--|-2----2---2---2--||-4----4--4-4--4--|-9----9---9---9--|
G |-8----8--8-8--8--|-3----3---3---3--||-4----4--4-4--4--|-9----9---9---9--|
D |-9----9--9-9--9--|-4----4---4---4--||-6----6--6-6--6--|-9----9---9---9--|
A |-9----9--9-9--9--|-4----4---4---4--||-6----6--6-6--6--|-7----7---7---7--|
E |-7----7--7-7--7--|-2----2---2---2--||-4----4--4-4--4--|-x----x---x---x--|
                                                                         x1

 * Finish the song by play the B-chord once:
e |-7---------------|
B |-7---------------|
G |-8---------------|
D |-9---------------|
A |-9---------------|
E |-7---------------|
Tap to rate this tab
 
# A B C D E F G H I J K L M N O P Q R S T U V W X Y Z