Song name
# A B C D E F G H I J K L M N O P Q R S T U V W X Y Z

Matthew Ryan - There Was A Day tab

E|----------0---------|--------0-----------|----------4---------|--------2-----------|
B|------1-----1---1---|----0-----0---------|------0-----0---0---|----3-----3---------|
G|----2---2-----2-----|------1-----1-------|----0---0-----0-----|------1-----1-------|
D|--------------------|--------------------|--------------------|--0-----------------|
A|--0-----------------|--2-----------------|--------------------|--------------------|
E|--------------------|--------------------|--3-----------------|--------------------|

________________I mean with a smile__________________I keep thinking of you

E|----------0-0-------|--------0-----------|----------4---------|----------2---------|
B|------1---1-1-------|----0-----0---------|------0-----0---0---|----3---3---3---3---|
G|----2---2-----2-----|------1-----1-------|----0---0-----0-----|------1-------1-----|
D|--------------------|--------------------|--------------------|--0-----------------|
A|--0-----------------|--2-----------------|--------------------|--------------------|
E|--------------------|--------------------|--3-----------------|--------------------|

You know my love______________________________You know my love

E|----------0---------|----------0---------|----------4---------|----4---4-----------|
B|------1-----1---1---|----1---1---1-------|------0-----0---0---|----0---0-0---------|
G|----0---0-----0-----|------0-------0-----|----0---0-----0-----|------0-----0-------|
D|--------------------|--------------------|--------------------|--------------------|
A|--2-----------------|--2-----------------|--------------------|--------------------|
E|--------------------|--------------------|--3-----------------|--3-----------------|

Am - 002210
E - 022100
G6 - 320030
Dadd9 - 200230
C7M - 032000
Em7 - 320000
Tap to rate this tab
# A B C D E F G H I J K L M N O P Q R S T U V W X Y Z