Song name
# A B C D E F G H I J K L M N O P Q R S T U V W X Y Z

Matthew Santos - Wide Eyed Firefly tab

-------------------------------------------------------------------------------
			     Matthew Santos - Wide Eyed Firefly
-------------------------------------------------------------------------------
Tabbed by: BananaFromMars
Email: BananaFromMars@gmail.com

Tuning: EADGBE (standard tuning)

This is how I play 'Wide Eyed Firefly' by Matthew Santos.
If you have any questions or suggestions, feel free to ask/comment!

Please don't copy this tab to any other website without my permission, thanks!

\               =   slide down
(x-x-x-x-x-x-x) =   slightly hit the strings while muting
h               =   natural harmonic

First part is bass only, guitar-part starts at 0:37

e|---------------------------------------------------------------------------|
B|---------------------------------------------------------------------------|
G|---------------------------------------------------------------------------|
D|---------------------------------------------------------------------------|
A|---7---6---5---3---3-------------------------------------------------------|
E|-5---5---5---5---5---5--3--0--3--5--5--3--5--3--0--0--(x-x-x-x-x-x-x-x)----|


e|---------------------------------------------------------------------------|
B|---------------------------------------------------------------------------|
G|---------------------------------------------------------------------------|
D|---7---6---5---3---3-------------------------------------------------------|
A|-5---5---5---5---5---5--3--0--3---5-5-5---3-3-3-3---2-2-2-2---1-1-1-1------|
E|---------------------------------------------------------------------------|


e|---------------------------------------------------------------------------|
B|---------------------------------------------------------------------------|
G|---------------------------------------------------------------------------|
D|---------------------------------------------------------------------------|
A|---------------------------------------------------------------------------|
E|-3--5--5--3--5--3--0--0--3--5--5--3--5--3--8\------------------------------|
  
                                                                                  x2
e|---------------------------------------------------------------------------|
B|---------------------------------------------------------------------------|
G|---------------------------------------------------------------------------|
D|---------------------------------------------------------------------------| 
A|---------------------------------------------------------------------------|
E|-3--5--5--3--5--3--0--0--(x-x-x-x-x-x-x)-----------------------------------|

Chorus
e|-x------x------x------x----------------------------------------------------|
B|-1------1------1------x----------------------------------------------------|
G|-2------x------2------1----------------------------------------------------|
D|-2------2------3------2----------------------------------------------------|    x2 
A|-x------3------3------2----------------------------------------------------|
E|-x------x------x------x----------------------------------------------------|


e|---------------------------------------------------------------------------|
B|---------------------------------------------------------------------------|
G|---------------------------------------------------------------------------|
D|---------------------------------------------------------------------------|    x4
A|---------------------------------------------------------------------------|
E|-3-5---3-5---3-0---3-5---3-5---8/---3--5--5--3--5--3--0--0--(x-x-x-x-x-x-x)|


e|---------------------------------------------------------------------------|
B|---------------------------------------------------------------------------|
G|---------------------------------------------------------------------------|
D|---------------------------------------------------------------------------|
A|---7---6---5---3---3-------------------------------------------------------|
E|-5---5---5---5---5---5--3--0--3--5--5--3--5--3--0--0--(x-x-x-x-x-x-x-x)----|


e|---------------------------------------------------------------------------|
B|---------------------------------------------------------------------------|
G|---------------------------------------------------------------------------|
D|---7---6---5---3---3-------------------------------------------------------|
A|-5---5---5---5---5---5--3--0--3---5-5-5---3-3-3-3---2-2-2-2---1-1-1-1------|
E|---------------------------------------------------------------------------|


e|---------------------------------------------------------------------------|
B|---------------------------------------------------------------------------|
G|---------------------------------------------------------------------------|
D|---------------------------------------------------------------------------|
A|---------------------------------------------------------------------------|
E|-3--5--5--3--5--3--0--0--3--5--5--3--5--3--8\------------------------------|
   
                                                                                  x2
e|---------------------------------------------------------------------------|  
B|---------------------------------------------------------------------------|
G|---------------------------------------------------------------------------|
D|---------------------------------------------------------------------------|
A|---------------------------------------------------------------------------|
E|-3--5--5--3--5--3--0--0--(x-x-x-x-x-x-x)-----------------------------------|

Chorus
e|-x------x------x------x----------------------------------------------------|
B|-1------1------1------x----------------------------------------------------|
G|-2------x------2------1----------------------------------------------------|
D|-2------2------3------2----------------------------------------------------|    x2
A|-x------3------3------2----------------------------------------------------|
E|-x------x------x------x----------------------------------------------------|


e|---------------------------------------------------------------------------|
B|---------------------------------------------------------------------------|
G|---------------------------------------------------------------------------|
D|---------------------------------------------------------------------------|
A|---------------------------------------------------------------------------|
E|-3--5--5--3--5--3--0--0--3--5--5--3--5--3--8\------------------------------|
   
                                                                                  x2
e|---------------------------------------------------------------------------|  
B|---------------------------------------------------------------------------|
G|---------------------------------------------------------------------------|
D|---------------------------------------------------------------------------|
A|---------------------------------------------------------------------------|
E|-3--5--5--3--5--3--0--0--(x-x-x-x-x-x-x)-----------------------------------|

Chorus
e|-x------x------x------x----------------------------------------------------|
B|-1------1------1------x----------------------------------------------------|
G|-2------x------2------1----------------------------------------------------|
D|-2------2------3------2----------------------------------------------------|    x2
A|-x------3------3------2----------------------------------------------------|
E|-x------x------x------x----------------------------------------------------|

Guitar-part stops, piano starts. Next guitar-part starts at 3:14
e|---------------------------------------------------------------------------|
B|---------------------------------------------------------------------------|
G|---------------------------------------------------------------------------|
D|---------------------------------------------------------------------------|
A|---------------------------------------------------------------------------|
E|-3--5--5--3--5--3--0--0--3--5--5--3--5--3--8\------------------------------|
   
                                                                                  
e|---------------------------------------------------------------------------|  
B|---------------------------------------------------------------------------|
G|---------------------------------------------------------------------------|
D|---------------------------------------------------------------------------|
A|---------------------------------------------------------------------------|
E|-3--5--5--3--5--3--0--0--(x-x-x-x-x-x-x)-----------------------------------|


e|---------------------------------------------------------------------------|
B|---------------------------------------------------------------------------|
G|---------------------------------------------------------------------------|
D|---------------------------------------------------------------------------|
A|---------------------------------------------------------------------------|
E|-3--5--5--3--5--3--0--0--3--5--5--3--5--3--8\------------------------------|
   
                                                                                  
e|---------------------------------------------------------------------------|  
B|---------------------------------------------------------------------------|
G|-----------------------------9h--------------------------------------------|
D|---------------------------------9h----------------------------------------|
A|---------------------------------------------------------------------------|
E|-3--5--5--3--5--3--0--0----------------------------------------------------|

Chorus
e|-x------x------x------x----------------------------------------------------|
B|-1------1------1------x----------------------------------------------------|
G|-2------x------2------1----------------------------------------------------|
D|-2------2------3------2----------------------------------------------------|    x2
A|-x------3------3------2----------------------------------------------------|
E|-x------x------x------x----------------------------------------------------|


e|---------------------------------------------------------------------------|
B|---------------------------------------------------------------------------|
G|---------------------------------------------------------------------------|
D|---------------------------------------------------------------------------|
A|---------------------------------------------------------------------------|
E|-3--5--5--3--5--3--0--0--3--5--5--3--5--3--8\------------------------------|
   
                                                                                  x2
e|---------------------------------------------------------------------------|  
B|---------------------------------------------------------------------------|
G|---------------------------------------------------------------------------|
D|---------------------------------------------------------------------------|
A|--------------------------7-7---6-6---5-5---3-3----------------------------|
E|-3--5--5--3--5--3--0--0----------------------------------------------------|


e|---------------------------------------------------------------------------|
B|---------------------------------------------------------------------------|
G|---------------------------------------------------------------------------|
D|---------------------------------------------------------------------------|
A|---------------------------------------------------------------------------|
E|-3--5--5--3--5--3--0--0--3--5--5--3--5--3--8\------------------------------|
   
                                                                                  x2
e|---------------------------------------------------------------------------|  
B|---------------------------------------------------------------------------|
G|---------------------------------------------------------------------------|
D|---------------------------------------------------------------------------|
A|---------------------------------------------------------------------------|
E|-3--5--5--3--5--3--0-------------------------------------------------------|


Enjoy!

Matthew Santos' website:
http://www.matthewsantos.com/
Tap to rate this tab
 
# A B C D E F G H I J K L M N O P Q R S T U V W X Y Z