Song name
# A B C D E F G H I J K L M N O P Q R S T U V W X Y Z

Matthew Socci - Light In The Darkness tab

Light in the darkness
- Matthew Socci

http://www.youtube.com/watch?v=dt1juNm2oSg (listen for reference)
Gtr I (D A D G A D) - 'Untitled'
No capo.

Notes: Many of the hammerons and pulloffs, vibratos and harmonics are not shown
in the tab, however i assure you that more or less all of the notes are correct, even
though the order may be a bit different for this is my first tab and i have only been 
playing guitar for about a year and a half.
Almost every note denoted 12 has to be a harmonic, and some of them have to be
slaps. Kindly refer to the video for getting the basic idea and please go easy on me :P

Please email comments, corrections, suggestions and the rest to
the email: akhauri.yash.prolong@gmail.com (Tabbed by: Yash Akhauri)
p = pull-off, h = hammer-on, s = slide

Important: Even though i have tried my best to keep the order correct, some parts might be
mixed up in order, but i am pretty sure that they are all tabbed correctly. Also, this 
is my
first tab and i dont know music theory so the beats are something you will have to 
figure out
haha :)
Have fun!


  Gtr I
   E E E E E E E E.. E E E E E E E  E E E E E E E E E E E  E
|----0-4-5-7-7-5-4---0---4-0-------12-0h7h9p7p0-----------12-|
|----------------------5-----5-7-9-12-----------7h9-9p7p5-12-|
|----------------------------------12---------------------12-|
|-12------------------------------------------------------12-|
|-12------------------------------------------------------12-|
|-12------------------------------------------------------12-|


   E E E E E E E E..   E E E E E E E  E   E E E E E E E E   E E  E
|----0-4-5-7-7-5-4---|-0---4-0-------12-|-0h7h9p7p0-------|-----12-|
|--------------------|---5-----5-7-9-12-|-----------7h9-9p|=7p5-12-|
|--------------------|---------------12-|-----------------|-----12-|
|-12-----------------|------------------|-----------------|-----12-|
|-12-----------------|------------------|-----------------|-----12-|
|-12-----------------|------------------|-----------------|-----12-|


  E E E E E E E E E E E E E E E E E E E E E E E E E E E E E E E E E
|---2-4-5-4-2-4-2-0---2-4-5-7-5-4-2---2-4-5-7-5-4-2-----------------|
|---------------------------------------------------4-2-4-2-4-2-4h5-|
|-------------------------------------------------------------------|
|-------------------------------------------------------------------|
|-5-----------------7---------------9-------------------------------|
|-5-----------------7---------------9-------------------------------|


  E E E E E E E E   E E E E E E E E   E
|---2-4-5-4-2-4-2-|-0---2-4-5-7-5-4-|-2--|
|-----------------|-----------------|----|
|-----------------|-----------------|----|
|-----------------|-----------------|----|
|-5---------------|---7-------------|----|
|-5---------------|---7-------------|----|


  E E E E E E E E E E E E E E E E
|---2-4-5-7-5-4-2-----------------|
|-----------------4-2-4-2-4-2-4h5-|
|---------------------------------|
|---------------------------------|
|-0-------------------------------|
|-0-------------------------------|


  E E E E E E E E   E E E E E E E E   E E E E  E
|---2-4-2-2h4p2p0-|-2-0---2-4-2-2h4p|=2p0-2-0-----|
|-----------------|-----------------|-------------|
|-----------------|-----------------|---------12--|
|-----------------|-----------------|---------12--|
|-5---------------|-----7-----------|---------12--|
|-5---------------|-----7-----------|---------12--|


  E E E E E E E E   E E E E E E E E E E E E E E E E E E E E E E E E
|-2-4-5-4-2-------|-------------------------------------------------|
|-----------4-2---|-----------------2-4-5-4-2-4-2-0---2-4-5-7-5-4-2-|
|---------------4-|-2-----------------------------------------------|
|-----------------|---4-2-------------------------------------------|
|-----------------|-------4-2-----5-----------------7---------------|
|-----------------|-----------4-2-5-----------------7---------------|


  E E E E E E E E E E E E E E E E E E E E E E E E E E E E E E E E E E E E E E E E E E E EEEE
|-----7---7---7-----7---7---7---7-5-4-2-------7-5-4-2-----------7---7---7-------7p0-7h9p7-5p4p0-|
|---5---5---5-----5---5---5-------------4-2-----------4-2h4---5---5---5-----5p0-----------------|
|-----------------------------------------------------------------------------------------------|
|-----------------------------------------------------------------------------------------------|
|-9-------------9-------------5-------------7---------------9-----------------------------------|
|-9-------------9-------------5-------------7---------------9-------------9---------------------|


  E E E E E E E E E E E E E E E E E E E E E E E E E E E E E E E E E
|---2-4-2-2-4-2-0-2-0-----4---4---4-2---2---2-----2-4---4---4-----4-|
|-----------------------2---2---2-----2---2---2-2-----4---4---4-4---|
|-------------------------------------------------------------------|
|-------------------------------------------------------------------|
|-5-------------------7-------------2---------------4---------------|
|-5-------------------7-------------2---------------4---------------|


  E E E E E E E E E E E E E E E E
|-5-7-5-7-5-7-5-5-7-9-7-9-7-9-7-7b8-|
|-----------------------------------|
|-----------------------------------|
|-----------------------------------|
|-5---------------7-----------------|
|-5---------------7-----------------|


  E E E E E E E E E E E E E E E E E E E E E E E E E E E E E E E E E E E E
|---------------------0h2h4-4p2p0-4h5p4p0-5h7p5p0-7h9p7p0-5h7p5p0-2h4p2p0--|
|---------------0h2h4------------------------------------------------------|
|---------0h2h4------------------------------------------------------------|
|---0h2h4------------------------------------------------------------------|
|--------------------------------------------------------------------------|
|-0------------------------------------------------------------------------|


  E E E E E E E E E E E E E E E E E E E E E E E E E E E E E E E E E E E
|-----------0h7h9p7p0-------0h7p0h5p0h4-------0-----0---------0-----0---|
|-0h2h4h5-------------0h7h9-----------------4---------4-----5---------5-|
|-----------------------------------------0-------0-------0-------0-----|
|-----------------------------------------------------------------------|
|---------------------------------------4-------4-------5-------5-------|
|---------0-----------------------------4-------4-------5-------5-------|


  E E E E E E E E   E E E E E E E E E E E E E E E E E E E E E E
|---0h7h9p7p0-----|---7p0-7p0---------0-------0-------0-----0----||
|-------------0h7h|=9---------9-----9-------9-------5---------5--||
|-----------------|---------------0-------0-------0-------0------||
|-----------------|----------------------------------------------||
|-----------------|-------------9-------9-------5-------5--------||
|-0---------------|-------------9-------9-------5-------5--------||


  E E E E E E E E   E E E E E E E E E E E E E E E E E E E E E E E E E
|-------0-------0-|-------0-------0-7p5p4p2h4h5p4p2h4h5p4p2h4p2h4p2p0--|
|-----7-------7---|-----7-------7--------------------------------------|
|---0-------0-----|---0-------0----------------------------------------|
|-----------------|----------------------------------------------------|
|-7-------7-------|-7-------7------------------------------------------|
|-7-------7-------|-7-------7------------------------------------------|


  E E E E E E E E   E E E E E E E E   E E E E E E E E   E E E E E E E E   E
|---2-4-5-4-2-4-2-|-0---2-4-5-7-5-4-|-2---2-4-5-7-5-4-|-2---------------|---|
|-----------------|-----------------|-----------------|---4-2-4-2-4-2-4h|=5-|
|-----------------|-----------------|-----------------|-----------------|---|
|-----------------|-----------------|-----------------|-----------------|---|
|-5---------------|---7-------------|---9-------------|-----------------|---|
|-5---------------|---7-------------|---9-------------|-----------------|---|


  E E E E E E E E   E E E E E E E E
|---2-4-5-4-2-4-2-|-0---2-4-5-7-5-4-|
|-----------------|-----------------|
|-----------------|-----------------|
|-----------------|-----------------|
|-5---------------|---7-------------|
|-5---------------|---7-------------|


  E E E E E E E E   E E E E E E E E   E E E
|-2---2-4-5-7-5-4-|-2---------------|-------|
|-----------------|---4-2-----------|-------|
|-----------------|-------4-2-------|-------|
|-----------------|-----------4-2---|-------|
|---0-------------|---------------4-|-2-----|
|---0-------------|-----------------|---4-2-|


  E E E E E E E E E   E E E E E E E E   E E E E E E E E
|-------------------|-----------------|-----7---7---7---|
|---2-4-5-4-2-4-2-0-|---2-4-5-7-5-4-2-|---5---5---5-----|
|-------------------|-----------------|-----------------|
|-------------------|-----------------|-----------------|
|-5-----------------|-7---------------|-9-------------5-|
|-5-----------------|-7---------------|-9-------------5-|


  E E E E E E E E   E E E E E E E E   E E E E E
|-7-5-4-2-------7-|-5-4-2-----------|-7---7---7----|
|---------4-2-----|-------4-2h4---5-|---5---5------|
|-----------------|-----------------|--------------|
|-----------------|-----------------|--------------|
|-------------7---|-------------9---|--------------|
|-------------7---|-------------9---|--------------|


  E E E E E E E E E   E E E E E E E E   E E E E E E E E
|-------7p0-7h9p7-5p|=4p0---2-4-2-2-4-|-2-0-2-0-----4---|
|---5p0-------------|-----------------|-----------2---2-|
|-------------------|-----------------|-----------------|
|-------------------|-----------------|-----------------|
|-------------------|-----5-----------|---------7-------|
|-9-----------------|-----5-----------|---------7-------|


  E E E E E E E E   E E E E E E E E   E E E
|-4---4-2---2---2-|-----2-4---4---4-|-----4--|
|---2-----2---2---|-2-2-----4---4---|-4-4----|
|-----------------|-----------------|--------|
|-----------------|-----------------|--------|
|-------2---------|-------4---------|--------|
|-------2---------|-------4---------|--------|


  E E E E E E E E   E E E E E E E E     E E E E E E E E
|-5-7-5-7-5-7-5-5-|-7-9-7-9-7-9-7-7b8-|-----------------|
|-----------------|-------------------|---------------0h|
|-----------------|-------------------|---------0h2h4---|
|-----------------|-------------------|---0h2h4---------|
|-5---------------|-7-----------------|-----------------|
|-5---------------|-7-----------------|-0---------------|


  E E E E E E E E   E E E E E E E E   E E E E E E E E   E E E E
|-----0h2h4-4p2p0-|-4h5p4p0-5h7p5p0-|-7h9p7p0-5h7p5p0-|-2h4p2p0--|
|-2h4-------------|-----------------|-----------------|----------|
|-----------------|-----------------|-----------------|----------|
|-----------------|-----------------|-----------------|----------|
|-----------------|-----------------|-----------------|----------|
|-----------------|-----------------|-----------------|----------|


  E E E E E E E E E E E E E E E E E E E E E E E E E
|-----------7-9-7-0-------0-7-0-5-0-4-0-2-0-----7p0-|
|-0h2h4h5-----------0-7-9---------------------0-----|
|---------------------------------------------------|
|---------------------------------------------------|
|-------------------------------------------4-------|
|---------0---------------------------------4-------|


  E E E E E E E E   E E E E
|-----7p0-----7p0-|-----7p0-|
|---0-------0-----|---0-----|
|-----------------|---------|
|-----------------|---------|
|-4-------5-------|-5-------|
|-4-------5-------|-5-------|


  E E E E E E E E   E E E E E E E E   E E E E E E E E   E E E E E E E E   E
|---7p5p4p2-------|-------0-----0---|-------0-----0---|---0h7h9p7p0-----|---|
|-----------4-2---|-----4---------4-|-----5---------5-|-------------0h7h|=9-|
|---------------2-|---0-------0-----|---0-------0-----|-----------------|---|
|-9-------7-------|-----------------|-----------------|-----------------|---|
|-9-------7-------|-4-------4-------|-5-------5-------|-----------------|---|
|-9-------7-------|-4-------4-------|-5-------5-------|-0---------------|---|


  E E E E E   E  E E   E E E E E E E E   E E E E   E  E E E E E E E E E
|-0h7p0h7p0-<12>---0h|=7h9p7p0-------0h|=7p0h7p0--------7-9-7-0-------0-|
|-----------<12>-----|---------0h7h9---|------------------------0-7-9---|
|-----------<12>-----|-----------------|---------<12>-------------------|
|-----------<12>-----|-----------------|---------<12>-------------------|
|--------------------|-----------------|---------<12>-------------------|
|----------------0---|-----------------|---------<12>-0-----------------|


  E E E E E E E E   E E E E E E E E   E
|-7p5p4p2h4h5p4p2h|=4h5p4p2h4p2h4p2p|=0---|
|-----------------|-----------------|-----|
|-----------------|-----------------|-----|
|-----------------|-----------------|-----|
|-----------------|-----------------|-----|
|-----------------|-----------------|-----|


  E E E E E E E E   E E E E E E E E   E E E E E E E E   E E E E E E E E   E
|---2-4-5-4-2-4-2-|-0---2-4-5-7-5-4-|-2---2-4-5-7-5-4-|-2---------------|---|
|-----------------|-----------------|-----------------|---4-2-4-2-4-2-4h|=5-|
|-----------------|-----------------|-----------------|-----------------|---|
|-----------------|-----------------|-----------------|-----------------|---|
|-5---------------|---7-------------|---9-------------|-----------------|---|
|-5---------------|---7-------------|---9-------------|-----------------|---|


  E E E E E E E E   E E E E E E E E   E E E E  E E E E
|---2-4-2-2h4p2p0-|-2-0---2-4-2-2h4p|=2p0-2-0----2-4-5-|
|-----------------|-----------------|------------------|
|-----------------|-----------------|---------12-------|
|-----------------|-----------------|---------12-------|
|-5---------------|-----7-----------|---------12-------|
|-5---------------|-----7-----------|---------12-------|


  E E E E E E E E   E E E E E E E E   E E E E E E E E   E E E E E
|-4-2-------------|-----------------|-----------------|-----------|
|-----4-2---------|-----------2-4-5-|-4-2-4-2-0---2-4-|-5-7-5-4-2-|
|---------4-2-----|-----------------|-----------------|-----------|
|-------------4-2-|-----------------|-----------------|-----------|
|-----------------|-4-2-----5-------|-----------7-----|-----------|
|-----------------|-----4-2-5-------|-----------7-----|-----------|


  E E E E E E E E   E E E E E E E E   E E E E E E E E
|-----7---7---7---|---7---7---7---7-|-5-4-2-------7-5-|
|---5---5---5-----|-5---5---5-------|-------4-2-------|
|-----------------|-----------------|-----------------|
|-----------------|-----------------|-----------------|
|-9-------------9-|-------------5---|-----------7-----|
|-9-------------9-|-------------5---|-----------7-----|


  E E E E E E E E   E E E E E  E E E E E E   E E E E
|-4-2-----------7-|---7---7--------7p0-7h9p|=7-5p4p0--|
|-----4-2h4---5---|-5---5------5p0---------|----------|
|-----------------|------------------------|----------|
|-----------------|------------------------|----------|
|-----------9-----|---------9--------------|----------|
|-----------9-----|---------9--------------|----------|


  E E E E E E E E E E E E E E E E E   E  E E E E E E E E E E E E E E E
|---2-4-5-4-2-4-2-4---2-4-5-7-5-4-2------2-4-5-4-2---------------------|
|--------------------------------------------------4-2-----------------|
|-----------------------------------<12>---------------4-2-------------|
|-----------------------------------<12>-------------------4-2---------|
|-5-----------------7---------------<12>-----------------------4-2-----|
|-5-----------------7---------------<12>---------------------------4-2-|


  E E E E E E E E E E   E E E E E E E E
|---------------------|-----------------|
|---------------------|-----------------|
|---------------------|-----------------|
|---2h4---2h4---2p0h2-|---2h4---2h4---2p|
|-2-----2-----2-------|-4-----4-----4---|
|-2-----2-----2-------|-4-----4-----4---|


  E E E E E E E E E E E   E E E E E E E E   E E
|-----------------------|-----------------|------|
|-----------------------|-----------------|------|
|-----------------------|-----------------|------|
|-0h2---2h4h5p4p2h4p2p0-|---2h4---2h4---2p|=0h2--|
|-----5-----------------|-7-----7-----7---|------|
|-----5-----------------|-7-----7-----7---|------|


  E E E E E E E E   E E E E E E E E E E E E E E E E E
|---2-4---2-4---2-|---2-4---2-4---2---2-4-5-4-2-4-2-0-|
|-----------------|-----------------------------------|
|-----------------|-----------------------------------|
|-----------------|-----------------------------------|
|-2-----2-----2---|-4-----4-----4---5-----------------|
|-2-----2-----2---|-4-----4-----4---5-----------------|


  E E E E E E E E E E E E E E E E   E E E E E E E E   E E E E E E E E
|---9-7-5-4-2---------------------|---9-7-5-4-2-----|--------------------|
|-------------4-2-----------------|-------------4-2-|--------------------|
|-----------------4-2-------------|-----------------|-4-2----------------|
|---------------------4-2---------|-----------------|-----4-2------------|
|-7-----------------------4-2-----|-7---------------|---------4-2--------|
|-7---------------------------4-2-|-7---------------|-------------4-2----|


  E E E E E E E E   E E E E E E E E   E E E E E E E E   E E E E E E E E  E
|---9-7-5-4-2-----|-----------------|---9-7-5-4-2-----|---------------------|
|-------------4-2-|-----------------|-------------4-2-|---------------------|
|-----------------|-4-2-------------|-----------------|-4-2-------------12--|
|-0---------------|-----4-2---------|-0---------------|-----4-2---------12--|
|-0---------------|---------4-2-----|-0---------------|---------4-2-----12--|
|-0---------------|-------------4-2-|-0---------------|-------------4-2-12--|


  E E E E E E E E    E E E E E E E E   E E E E E E E E   E E E E
|---0---0---0---0-|----9-7-5-4-2-----|-----------0---0-|---0---0--|
|---0---0---0---0-|-12-----------4-2-|-----------0---0-|---0---0--|
|---0---0---0---0-|-12---------------|-4-2-------0---0-|---0---0--|
|-5-0-7-0-9-0-9-0-|-12---------------|-----4-2-5-0-7-0-|-9-0-9-0--|
|-5-0-7-0-9-0-9-0-|-12---------------|---------5-0-7-0-|-9-0-9-0--|
|-5-0-7-0-9-0-9-0-|-12---------------|---------5-0-7-0-|-9-0-9-0--|


   E E E E E E E E   E E E E E E E E   E E E E E E E E E E
|----9-7-5-4-2-----|-----------9-7-5-|-4-2-----------------|
|-12-----------4-2-|-----------------|-----4-2-------------|
|-12---------------|-4-2-------------|---------4-2---------|
|-12---------------|-----4-2---------|-------------4-2-----|
|-12---------------|-----------------|-----------------4-2-|
|-12---------------|---------0-------|---------------------|


  E E E E E E E E   E E E E E E E E   E E E E E E E E   E E
|-9-7-5-4-2-------|---------9-7-5-4-|-2---------------|------|
|-----------4-2---|-----------------|---4-2-----------|------|
|---------------4-|-2---------------|-------4-2-------|------|
|-----------------|---4-2-----------|-----------4-2---|---0--|
|-----------------|-----------------|---------------4-|-2-0--|
|-----------------|-------0---------|-----------------|---0--|


  E E E E E E E E E E E E E E E E E E   E    E
|-2h4h5p4p2h4h5p4p2p0------------------------------|
|---------------------4p2h4p2h4h5h7h9-<12>--<7>----|
|-------------------------------------<12>--<7>----|
|-------------------------------------<12>--<7>----|
|-------------------------------------<12>--<7>----|
|--------------------------------------------------|


  E E E E E E E E   E E E E E E E E   E E E E E E E E
|-----------------|-----0h2h4-4p2p0-|-4h5p4p0-5h7p5p0-|
|---------------0h|=2h4-------------|-----------------|
|---------0h2h4---|-----------------|-----------------|
|---0h2h4---------|-----------------|-----------------|
|-----------------|-----------------|-----------------|
|-0---------------|-----------------|-----------------|


  E E E E E E E E E E E E E E E E E E E E E E E E E E E   E E E E E
|-7h9p7p0-5h7p5p0-4h5p4p0-2h4p2p0-----------------------|--------------|
|---------------------------------4p2p0-----------------|--------------|
|---------------------------------------4p2p0-0h2h4p2p0-|-0h2h4p2p0----|
|-------------------------------------------------------|--------------|
|-------------------------------------------------------|--------------|
|-------------------------------------------------------|--------------|


                                      ~            ~~~~
  E E E E E E E E E E E E E E E E E E E E  E E E E E E
|-2h4---4-----------0h7h9p7-------7p0------------0--------|
|-0-0-----0-----------------7h9-9-----9-9h10p9p5p0-2h4----|
|-0-0-------0---------------------------------------------|
|-2h4-4-------4p2p0--------------------------------2h4----|
|---------------------------------------------------------|
|---------------------------------------------------------|



There you go! :)
All the best
Tap to rate this tab
 
# A B C D E F G H I J K L M N O P Q R S T U V W X Y Z