Guitaretab - guitar tabs
Song name
# A B C D E F G H I J K L M N O P Q R S T U V W X Y Z

Matthew Sweet - Girlfriend tab

alright well this isn't perfect but pretty close...

starts out strumming C#

e|----------------------------------9--------------------------------------|
B|----------------------------------------------------------------------9--|
G|-9---9--------------9-------------------9-------------------9----9-11----|
D|--11---11~--11p9------11~--11p9------11---11-9-11~--11p9------11---------|
A|-----------------11-------------11-----------------------11--------------|
E|-------------------------------------------------------------------------|

e|-7-9b~-9p7-------------------------------9~-9-12-14b-12-9-12b-9~-9p7-----|
B|-----------9-7-------------------------------------------------------9---|
G|---------------9----9------------9---------------------------------------|
D|-----------------11---11-11p9------11~-----------------------------------|
A|------------------------------11-----------------------------------------|
E|-------------------------------------------------------------------------|
[ Tab from: http://www.guitaretab.com/m/matthew-sweet/129116.html ]
e|-7-9-12-12-12-12b-7-9~-9p7----------9--------------11b-9s7-9-7---7---9~--|
B|---------------------------9-7------9---------11b-9------------9---9-9~--|
G|-------------------------------9------9-9--------------------------------|
D|---------------------------------11-------11~----------------------------|
A|-------------------------------------------------------------------------|
E|-------------------------------------------------------------------------|

then i have the beginning of the second solo but i havent had time to figure all of it 
:)

e|-9-9-9-9-9---------------------------------------------------------------|
B|-9-9-9-9-9-7-------------------------------------------------------------|
G|------------9--9~-11-11-9-13p11-11-11-9~---------------------------------|
D|-------------11----------------------------------------------------------|
A|-------------------------------------------------------------------------|
E|-------------------------------------------------------------------------|

soo thats it...it sounds much better when u add the vibrato where its meant to be at and 
just have fun with it...'cause its just a fun solo!
Related for Girlfriend tab
Girlfriend chords by Matthew Sweet