Song name
# A B C D E F G H I J K L M N O P Q R S T U V W X Y Z

Matthew West - The Lie tab

Verses
e|----------------------------------|----------------------------------|
b|----------------------------------|----------------------------------|
g|-5-5-5----3-3---------------------|-5-5-5----3-3---------------------|
D|-5-5-5----3-3----3-3-3-----6-6----|-5-5-5----3-3----6-6-6-----3-3----|
A|-3-3-3----1-1----3-3-3-----6-6----|-3-3-3----1-1----6-6-6-----3-3----|
E|-----------------1-1-1-----4-4----|-----------------4-4-4-----1-1----|


Pre-Chorus 
   P.M..................................................................
e|---------------------------------|------------------------------------|
b|---------------------------------|------------------------------------|
g|---------------------------------|------------------------------------|
D|-6-6-6---6-6-6---8-8-8---8-8-8---|-6-6-6---6-6-6---10-10-10---8-8-8---|
A|-6-6-6---6-6-6---8-8-8---8-8-8---|-6-6-6---6-6-6---10-10-10---8-8-8---|
E|-4-4-4---4-4-4---6-6-6---6-6-6---|-4-4-4---4-4-4---8--8--8----6-6-6---|


   P.M.............................................
e|----------------------------------------|--------------------------------|
b|----------------------------------------|--------------------------------|
g|----------------------------------------|--------------------------------|
D|-6-6-6-6---6-6-6-6---5-5-5-5---5-5-5-5--|-5-5-5-5---5--------------------|
A|-6-6-6-6---6-6-6-6---5-5-5-5---5-5-5-5--|-5-5-5-5---5--------------------|
E|-4-4-4-4---4-4-4-4---3-3-3-3---3-3-3-3--|-3-3-3-3---3--------------------|
							


Chorus
e|----------------------------------------|
b|----------------------------------------|
g|-5-5-5-5-------------8-8-8-8------------|
D|-5-5-5-5---5-6-6-6---8-8-8-8---8-8-8-8--|
A|-3-3-3-3---5-6-6-6---6-6-6-6---8-8-8-8--|
E|-----------3-4-4-4-------------6-6-6-6--|
   (not really timed out...  just feel it out)


2nd part of Chorus
   P.M.....................................
e|----------------------------------------|--------------------------------|
b|----------------------------------------|--------------------------------|
g|----------------------------------------|--------------------------------|
D|-6-6-6-6---5-5-5-5---6-6-6-6---5-5-5-5--|-5------------------------------|
A|-6-6-6-6---5-5-5-5---6-6-6-6---5-5-5-5--|-5------------------------------|
E|-1-1-1-1---3-3-3-3---4-4-4-4---3-3-3-3--|-3------------------------------|


Bridge
e|----------------------------------|--------------------------------------|
b|----------------------------------|--------------------------------------|
g|-3-------5-------3-------5--------|--------------------------------------|
D|-3-------5-------3-------5--------|-5-5-5-5---5-5-5-5---5----------------|
A|-1-------3-------1-------3--------|-5-5-5-5---5-5-5-5---5----------------|
E|----------------------------------|-3-3-3-3---3-3-3-3---3----------------|
Tap to rate this tab
# A B C D E F G H I J K L M N O P Q R S T U V W X Y Z