Song name
# A B C D E F G H I J K L M N O P Q R S T U V W X Y Z

Matthew West - The Motions tab

---------------------------------------------------------
              The Motions - Matthew West
---------------------------------------------------------

Song: The Motions
Artist: Matthew West
Album: Something To Say
Standard Tuning

e|-----------------------------|
B|-----------------------------|
G|--------------------5--------|
D|--3-5-7-3-5-7-3-5-7---7-5-7--|
A|-----------------------------|
E|-----------------------------|

e|---------------------------|
B|---------------------------|
G|--------------------5------|
D|--3-5-7-3-5-7-3-5-7---7-5--|
A|---------------------------|
E|---------------------------|

That's it. Really easy. Feel free to comment and please rate.
Tap to rate this tab
# A B C D E F G H I J K L M N O P Q R S T U V W X Y Z