Song name
# A B C D E F G H I J K L M N O P Q R S T U V W X Y Z

Matthew West - The Motions tab

You can play this in a C Major Shape.
You will only need to move your middle finger on and off the D string.

e|-----------------------------|
B|-----------------------------|
G|-------------------0---------|
D|---0-2---0-2---0-2---2-0-2---|
A|-3-----3-----3---------------|
E|-----------------------------|


e|-----------------------------|
B|-----------------------------|
G|-------------------0---------|
D|---0-2---0-2---0-2---2-0-----|
A|-3-----3-----3---------------|
E|-----------------------------|
Tap to rate this tab
# A B C D E F G H I J K L M N O P Q R S T U V W X Y Z