Matthew West - Safe And Sound tab

Safe and Sound By Mattew West


      rep       Intro and verses 
E|------------  ------------|
B|------------  ------------|
G|------------  -----3------|
D|-----3------  --3h5--5-3--|
A|--3h5--5-3--  ------------|
E|------------  ------------|
      Chorus 
E|--6--6--3--4---|
B|--8--6--5--4---|
G|--8--7--5--5---|
D|--8--8--5--6---|
A|--6--8--3--6---|
E|--x--6--x--4---|
     Strum
Tap to rate this tab
 
# A B C D E F G H I J K L M N O P Q R S T U V W X Y Z