Song name
# A B C D E F G H I J K L M N O P Q R S T U V W X Y Z

Matthews Dave Band - Crash tab

Date: Mon, 09 Dec 1996 21:25:33 -0600 (CST)
From: Pool-Guy 
Subject: TAB: Crash by Dave Matthews Band

------------------
Dave Matthews Band - Crash Into Me
------------------
	Transcribed by Nate Kohl
This is a pretty simple song to play alone acoustically, with more or
less the same chord progression throughout the song:

E-|--0------0-----0-----0-----0----0----0----0-------
b-|--0------0-----0-----0-----0----0----0----0-------
g-|--6------2-----4-----1----------2----4----1-------
d-|--6------2-----4-----2-----6----2----4----2-------
a-|--4------0-----2-----2-----6----0----2----2-------
e-|---------------------0-----4--------------0-------

The above chords are all you need to play it...Of course, there are 
some minor deviations, and a bunch of added instruments and effects.
Get a band together if you want to hear the real thing!
In terms of strumming, here is a tab that should help to get close
to the real thing:

E-|------0--0-------0------0--0-----
B-|------0--0-------0------0--0-----
G-|--6----------2-------4-----------
D-|--6----------2-------4-----------
A-|--4----------0-------2-----------
E-|---------------------------------

Listen to the CD to see what I mean.


Date: Fri, 28 Mar 1997 12:17:17 -0500
From: Barbara Cunningham 

Here is Crash the way I figured it out. The way it was posted earlier
just doesn't sound right.This is the intro/verses:

---------------0-0-0---------0-0-0---------0-0-0---------0-0-0---------0-0-0-----------
---------------0-0-0---------0-0-0---------0-0-0---------0-0-0---------0-0-0-----------
---------------6-6-6---------2-2-2---------4-4-4---------1-1-1---------x-x-x-----------
---------------6-6-6---------2-2-2---------4-4-4---------2-2-2---------6-6-6-----------
----------4----4-4-4----0----0-0-0----2----2-2-2---------2-2-2---------6-6-6-----------
---------------x-x-x---------x-x-x---------x-x-x----0----0-0-0----4----4-4-4-----------

---------------0-0-0---------0-0-0---------0-0-0--------------------------
---------------0-0-0---------0-0-0---------0-0-0--------------------------
---------------2-2-2---------4-4-4---------1-1-1--------------------------
---------------2-2-2---------4-4-4---------2-2-2--------------------------
----------0----0-0-0----2----2-2-2---------2-2-2--------------------------
---------------x-x-x---------x-x-x----0----0-0-0--------------------------

	repeat untill end.

any questions or comments E-mail me at Cunning@Buffnet.net

	Thanks, Michael Cunningham


========================================================================

Date: Tue, 30 Sep 1997 01:25:12 -0400
From: Ian Young 
Subject: Song: Crash

Commentary:
After reading the rest of the tab that's been posted for 
this song, I think I've found what is most likely the _real_
tab. Or, rather, to my ears, it sounds more like the album version.

I will admit that it's quite a finger exercise to try to 
play this, but if you can make the distance, you find that
it's also easier to play this at the correct speed than it
is to play the others, as there's less sliding about.

Tuning: Standard

First off, your fingers go 
here:
  0 1 2 3 4 5 6
e||-|-|-|-|-|-|
b||-|-|-|-|(4)|
g||-|-|-|(3)|-|
d||-|(1)|-|-|-|
a||-|-|-|(2)|-|
e||-|-|-|-|-|-|

e|------0-----0-----0-----
b|------5-----5-----5-----
g|------4-----4-----4-----
d|------2-----2-----2-----
a|--4---x--0--x--2--x-----
e|------x-----x-----x--0-0
Tap to rate this tab
# A B C D E F G H I J K L M N O P Q R S T U V W X Y Z