Song name
# A B C D E F G H I J K L M N O P Q R S T U V W X Y Z

Matthews Dave Band - Crush tab

t. See http://www.olga.net/faq/ for more information.                     # #-----------------------------------------------------------------------------#

From: "Joe Pusateri" 
Subject: m/matthews_dave_band/crush.tab
Date: Sun, 29 Aug 1999 23:12:24 MDT


Crush
__________________________________________________________________________

tabbed by
joe pusateri

this is the version that dave and tim reynolds play on storytellers on VH1.
the top part is what dave plays and the bottom is what tim plays.for the 
solo
u have to ad lib it cause it would take forever to put in all the notes.

"Crazy.........."
e---2-----------------
b---3----0------------
g---4----0----2----2--
d---4----4----0----0--
a---2----2----2----2--
e-------------0----0--
G1

e---2-----------------
b---3----0----------2-
g---4----0----2-----2-
d---4----4----0-----2-
a---2----2----2-----5-
e-------------0-------
G2

"Crazy how you..
e---------------
b---------------
g-5-----5-------
d-5--5--5-------
a-3--5--3-------
e----3----------
G1

e---------------
b0-1-0-1-1------
g0-0-0-0-0------
d--------2------
a--------3------
e---------------
G2


"make a dog alright"
e--2-------------
g--3-------------
b--4-------------
d--4-------------
a--2-------------
e---------------
G1

e--2-------------
g--3-------------
b--4-------------
d--4-------------
a--2-------------
e---------------
G2


"crush me w/ things u do"
e---2-----------------
b---3----0------------
g---4----0----2----2--
d---4----4----0----0--
a---2----2----2----2--
e-------------0----0--
G1

e---2-----------------
b---3----0----------2-
g---4----0----2-----2-
d---4----4----0-----2-
a---2----2----2-----5-
e-------------0-------
G2

"and ill do 4 u
e---------------
b---------------
g-5-----5-------
d-5--5--5-------
a-3--5--3-------
e----3----------
G1

e---------------
b0-1-0-1-1------
g0-0-0-0-0------
d--------2------
a--------3------
e---------------
G2

"anything too"
e---------------
b---------------
g-5-----5-------
d-5--5--5-------
a-3--5--3-------
e----3----------
G1

e--2-------------
g--3--0-1-2-2----
b--4--0-1-2-3----
d--4-------------
a--2-------------
e----------------
G2

"sitting, smokin, feelin high"
e---2-----------------
b---3----0------------
g---4----0----2----2--
d---4----4----0----0--
a---2----2----2----2--
e-------------0----0--
G1

e---2-----------------
b---3----0----------2-
g---4----0----2-----2-
d---4----4----0-----2-
a---2----2----2-----5-
e-------------0-------
G2

"and in this moment"
e---------------
b---------------
g-5-----5-------
d-5--5--5-------
a-3--5--3-------
e----3----------
G1

e---------------
b0-1-0-1-1------
g0-0-0-0-0------
d--------2------
a--------3------
e---------------
G2

"it feels so right"
e---------------------
b---------------------
g---------------------
d--2-2--2-------------
a--2-2--2-------------
e--0-0--0-------------
G1

e---------------------
b---------------------
g---------------------
d--2-2--2-------------
a--2-2--2-------------
e--0-0--0-------------
G2

"Lovely lady i am at your feet"
e------------------------
b------------------------
g------------------------
d--7--7-7-----9-9-9------
a--5--5-5-----7-7-7------
e--3--3-3-----5-5-5------
G1

e------------------------
b--3-3-3\4/3-3-5-5-5-----
g--2-2-2\3/2-2-4-4-4-----
d------------------------
a------------------------
e--3-3-------3-5-5-5-----
G2

"oh god i want u so badly"

e---------------------
b---------------------
g---5--5---4---4------
d---5--5---4---4------
a---3--3---2---2------
e---------------------
G1

e---------------------
b---------------------
g---5--5---4---4------
d---5--5---4---4------
a---3--3---2---2------
e---------------------
G2

"and wonder 
e------------------------
b------------------------
g------------------------
d--7--7-7-----9-9-9------
a--5--5-5-----7-7-7------
e--3--3-3-----5-5-5------
G1

e------------------------
b--3-3-3\4/3-3-5-5-5-----
g--2-2-2\3/2-2-4-4-4-----
d------------------------
a------------------------
e--3-3-------3-5-5-5-----
G2

"and you......."
e---------------
b---------------
g-5-----5-------
d-5--5--5-------
a-3--5--3-------
e----3----------
G1

e-----------
b----1-1----
g---0--0----
d--2---2----
a-3----3----
e-----------
G2

"and lets go 
e---2-----------------
b---3----0------------
g---4----0----2----2--
d---4----4----0----0--
a---2----2----2----2--
e-------------0----0--
G1
    (2X)
e----9----|------
b-----9---|----2-
g------9--|--2-2-
d---7---7-|--0-2-
a--7------|--2-5-
e-9-------|--0---

"and watch 
e---------------
b---------------
g-5-----5-------
d-5--5--5-------
a-3--5--3-------
e----3----------
G1

e---------------
b0-1-0-1-1------
g0-0-0-0-0------
d--------2------
a--------3------
e---------------
G2

"and drink
e---2-----------------
b---3----0------------
g---4----0----2----2--
d---4----4----0----0--
a---2----2----2----2--
e-------------0----0--
G1

e---2-----------------
b---3----0----------2-
g---4----0----2-----2-
d---4----4----0-----2-
a---2----2----2-----5-
e-------------0-------
G2

"its crazy 
e------------------------------
b------------------------------
g------7--------------------12-
d--------------12----12--------
a------10------10-----------9--
e------8-------10----12-----10-
G1

e---------------3--------------
b---------------3----1------3--
g---------------0----2------0--
d------3--------0----0------0--
a------3--------2----3------2--
e------1--------3--------------
G2

"is this real 
e----------------------
b----------------------
g--5--5----------------
d--5--5-----2---2------
a--3--3-----2---2------
e-----------0---0------
G1

e----------------------
b----------------------
g--5--5----------------
d--5--5-----2---2------
a--3--3-----2---2------
e-----------0---0------
G2

solo:
   (2x)
e-------|-----------------|-------|------------------|-----------
b-------|-----------------|-------|------------------|-----------
g-------|----7-5-4--------|-------|-----7-5-4--------|-----------
d-5-3-2-|5-3-7-5-4-7-5-3-2|-5-3-2-|-5-3-7-5-4-7-5-3-2|-5-3-2-----
a-5-3-2-|5-3-5-3-2-7-5-3-2|-5-3-2-|-5-3-5-3-2-7-5-3-2|-5-3-2-----
e-3-1-0-|3-1-------5-3-1-0|-3-1-0-|-3-1-------5-3-1-0|-3-1-0---7/
G1

(ad lib)
e--------------------------------------------------------------------
b-12-11-9-9--12-13-15--15---12-11-12-11-7-7-7\5-5-5-5\3--12-13-15-12-
g--------9-9---------15--15-------------7-7-7\5-5-5-5\3--12-13-15-12-
d--------------------------------------------------------------------
a--------------------------------------------------------------------
e--------------------------------------------------------------------
G2(slide)
e---------------------------------------------------------
b-18-17--15-13----12-12-13-13-15-15-/15-15\12-12----------
g-18-17--15-13-/12----------------------------------------
d---------------------------------------------------------
a---------------------------------------------------------
e---------------------------------------------------------
G2

repeat verse and chorus.
Tap to rate this tab
# A B C D E F G H I J K L M N O P Q R S T U V W X Y Z