Guitaretab - guitar tabs
Song name
# A B C D E F G H I J K L M N O P Q R S T U V W X Y Z

Matthews Dave Band - Satellite tab

t. See http://www.olga.net/faq/ for more information.                     #
#-----------------------------------------------------------------------------#

Date: Fri, 24 Mar 2000 15:39:53 -0500
From: "Scott Taylor" 
Subject: m/matthews_dave_band/satellite.tab 

"Satellite" - Dave Matthews Band

Intro
acoustic - Dave
------------------------
------------------------
------------------------
----8---6---5-------6---
--6---4---------8-4-----
4---------8---6-------8-

acoustic - Tim 2nd half of Intro
--4-6-4-----4-8-4---4-6-4---4-8----6-6-4---4  
4--------4--------4-------4------4-------4--
(6x's)--------------------------------------
--------------------------------------------
--------------------------------------------  
--------------------------------------------



Verse (Intro riff - Dave)
    Ab
....mother station

Chorus

Winter's cold.....
Ab     Db6/9  Bbm7  Eb7add4
Dave
----------------------
----------------------
-------8------8-----8-
6---8--6------6-----6-
6---6--4------------6-
4-8-----------6-------

Tim
-8------------6----6--
-9-----9------9----8-9
-8----10------6-------
10-----8------6-------
11----11-----------6--
--------------6----6--

Verse
Chorus

Bridge - Rest high above the clouds.....

Ab  Cm Dbadd2 Bbm
Dave
4---3---4-------
4---4---4-------
5---5---6-------
6---5---6-----8-
6---3---4-------
4-------------6-
Tim
4---8---9-----6-
4---8---9-----6-
5---8--10-----6-
6--10--11-----8-
----------------
----------------
[ Tab from: http://www.guitaretab.com/m/matthews-dave-band/11372.html ]
Related for Satellite tab
×
Satellite