Song name
# A B C D E F G H I J K L M N O P Q R S T U V W X Y Z

Matthews Dave Band - So Much To Say tab

#

Date: Thu, 21 Nov 1996 11:16:47 -0800 (PST)
From: "R. McPherson" 
Subject: TAB: So Much To Say (Dave Matthews Band)


Just some basic parts of the song here.
Mix and match these riffs/progressions throughout the song.
nc=no chord, x=mute string.

Title: So Much To Say
Artist: Dave Matthews Band
transcribed by: rjmcpher@uci.edu


Intro:
E +---5--------------|--------------------|
B |---5--------------|-----x5-------------|
G |---5/6----------0-|-----x5/6-6--------0|
D |-----0-7--------0-|--------0-7--------0|
A |----------------0-|-------------------0|
E +/5--------0-8\----|3/5----------0-8\---|


E +---------------------|------5--------------|
B |----0-0-5------------|----0-5--------------|
G |--------5/6-6-------0|----0-5/6-----------0|
D |----------0-7-------0|-----------7------0--|
A |--------------------0|---------------------|
E +3/5-----------0-8\---|3/5----------0-8\----|

Verse:
E +------------------|----------------------|
B |----x-5-----------|-------6--------------|
G |----x-5---6-------|-------7--0-x-------7-|
D |--------0-7-----5-|-0-----7--0-------7---|
A |--------------3---|-----x----------5-----|
E +3/5---------1-----|--------------3-------|
 
   I say my hell is the closet I'm stuck inside


E +---------------------|------5--------------|
G |----0-0-5------------|----0-5--------------|
B |--------5/6-6-------0|----0-5/6-----------0|
D |----------0-7-------0|-----------7------0--|
A |--------------------0|---------------------|
E +3/5-----------0-8\---|3/5----------0-8\----|
                       Can't see the light      


nc(A)         Fsus2    nc       Dm         Gsus2
I say my hell is the | closet I'm stuck inside

nc (A)               nc (A)     
                     | Can't see the light


In my heaven is a nice house in the sky
We got central heating and I'm alright
Keep it locked up inside don't talk about it
Talk about the weather

Yeah yeah yeah can't see the light
Open up my head and let me out uh little baby


E +-------------|----------|------------|-----------|
B |-------------|----------|------------|-----------|
G |----5-6--0-2-|---5--7---|---5-6--0-2~|~0--5--6---|
D |----5-5------|---5--7---|---5-5------|----5--5---|
A |-------------|----------|------------|-----------|
E +-------------|----------|------------|-----------|

'Cuz here we have been standing for a long long time
Treading trodden trails for a long long time

I say my hell is the closet I'm stuck inside
Can't see the light 
And my heaven is a nice house in the sky 
Got central heating and I'm alright

'Cuz here we have been standing for a long long time
Treading trodden trails for a long long time time time

A5   D5   Gsus2          D5 
I    find sometimes it's easier to be myself 

A5       D  G           Dsus2
Sometimes   I find it's better to be somebody else


A7 Am7 A7       F     nc  G     nc     A7
I see you young and soft    oh little baby
A7         nc           A7
Little feet little feet little feet little baby
            Fsus2          Dm             Gsus2
One year of crying and the words creep up inside
deep into your mind yeah
So much to say so much to say so much to say so much to say
So much to say so much to say so much to say so much to say

'Cuz here we have been standing for a long long time
Treading trodden trails for a long long time time time

I find sometimes it's easier to be myself 
Sometimes I find it's better to be somebody else

So much to say so much to say so much to say so much to say
So much to say so much to say so much to say so much to say
Open up my head and let me out little baby





From marv@iainc.net Tue Nov 26 11:21:27 1996
Date: Sat, 23 Nov 1996 22:43:51 -0500
From: Marvin Mahlak 
To: guitar@olga.net
Subject: Tabr Dave Matthews Band: So much to say

This is off their cd Crash.  I dont care what you do with it. I know it is right

INtro:                                                

----------------X--X--5-------------------------------------------------
----------------X--X--5-\--6--------------------------------------------
----------------X--X--5\-----------------------------------------------
-------------------------------------------7--------------------------
---------------------------------------------------------------
-0\5----------------------------------------------------8\0------------(two
times)

-----------------------X--X---5---------------------------------------------
--------------------------------------
-----------------------X--X---5-\6------------------------------------------
------------------------------------
-----------------------X--X---5---------------------------------------------
-----------------------10------------
------------------------------------------------7--------------------------5
------------------------7-----------------
---------------------------------------------------------------------3------
------------------------------------------
----------0\5----------------------------------------------1----------------
------3\10---------------------------


----------------------------------------------------------------------------
---------------------------------
----------------------------------------------------------------------------
--------------------------------
------------------------------------------------------------7*--------------
---------------------------------
------------------------------------------------7---------------------------
-------------------------------
----X---X-------------------------5-----------------------------repeat
---------------------------------------------------
----X---X-------------3-----------------------------------------------------
--------------------------------

DO this for most of the song with slight variations.  Just listen for the
variations. 

The bridge is barre chords:A D G A ("Ill find....")


Enjoy.   "Play the guitar and play life."

GUitar is life.  You can see our band play every friday night at mellow
mushroom in Snellville Ga.  We are called The Acqueistrio
Tap to rate this tab
 
# A B C D E F G H I J K L M N O P Q R S T U V W X Y Z