Guitaretab - guitar tabs
Song name
# A B C D E F G H I J K L M N O P Q R S T U V W X Y Z

Matthews Dave Band - #40 tab

| #40 |
 -----


"tables turned again...."
E-------------------------------------
B---1-----1------1------1-------------
G---0-----0------0------0-------------
D---2-----x------2------2-------------
A-3-3---2-2------x------3-------------
E--------------1-1----3-3-------------


"all I know..."
E--0--0---------2--0--3--0--2---0-----
B--1--1---------3--3--3--2--3---5-----
G--0--0---2--4--2--2--0--2--4---4-----
D--2--x---0--0--0--0--0--2--4---2-----
A--3--2---x--x-----x--x--0--2---2-----
E---------2--3-----2--3---------4-----


"always..."
E--------0--0--0---0----
B--------1--1--1---1----
G--4--5--0--0--0---0----
D--4--5--2--x--2---2----
A--2--3--3--2--x---x----
E--------------1---3----


if you watch the listener supported video
you can see he ends on the C power chord
[ Tab from: http://www.guitaretab.com/m/matthews-dave-band/22083.html ]
Related for #40 tab
Advertisement will be closed in 10 seconds