Song name
# A B C D E F G H I J K L M N O P Q R S T U V W X Y Z

Matthews Dave Band - Two Step tab

Intro                                       
                                                    
E-------------------------------             
b-------------------------------             
g-10-10-10-9-9-9----------------             
d----------------3-3-3-3-3-3-3-3             
a-------------------------------             
e-10-10-10-8-8-8-1-1-1-1-1-1-1-1  

Verse    
 
E------------------------------
b------------------------------
g-10-10-10-10-7-9-9-9-9---------7-7-7-5-5-5---------
d-----------------------3-3-3-3-------------3-3-3---
a---------------------------------------------------
e-10-10-10-10-6-8-8-8-8-1-1-1-1-6-6-6-4-4-4-1-1-1---

Chorus (Celebarte We Will)        (Things We Cant Change)

E-------------------------        E--------------------------
b-------------------------        b--------------------------
g-------9-9-9-3-3-3-6-5---        g-------7-7-7-5-5-5-3-3-3--       
d-3-3-3-------------------        d-3-3-3-------------------3        
a-------------------------        a--------------------------
e-1-1-1-8-8-8-3-3-3-7-5---        e-1-1-1-6-6-6-5-5-5-3-3-3-1

Ending and beginig sometimes just listen for it 

E-----------------
b-----------------
g-10-10-10 10--10-----
d-----------------
a-----------8--------
e-10--6--8-----10-----

There ya go if ya have any ?s emil me at bcg71186@aol.com i also know alot of othe dmb tabs
Tap to rate this tab
# A B C D E F G H I J K L M N O P Q R S T U V W X Y Z