Song name
# A B C D E F G H I J K L M N O P Q R S T U V W X Y Z

Matthews Dave - #34 tab

One of the prettiest instumentals ive ever heard:

e------------------------------------------------------
b------------------------------------------------------
g-----------11-------------7p6-------------------------
d----9-----9--------11----7---3/4--7-------------------
a---7----7-----8/9-------5------------5h7--7--7--7--9--
E--5---------------------------------------------------

e-----------------------------------
b-----------------------------------
g-----------------------------------
d----------0-------0----------------
a-------4--------5----7---7---7---9-
E-----2--------3--------------------
Tap to rate this tab
# A B C D E F G H I J K L M N O P Q R S T U V W X Y Z