Guitaretab - guitar tabs
Song name
# A B C D E F G H I J K L M N O P Q R S T U V W X Y Z

Matthews Dave - Crash Into Me tab

e--------------------------------------------------------------
b----5-----5-----5-----5-----5-----5----5-----5------------------------
g----4-----4-----4-----4-----4-----4----4-----4------------------------
d----2-----2-----2-----2-----2-----2----2-----2------------------------
a--4-----0-----2-----------------0-----2----------------------------
E--------------------0-----4----------------0---------------------

"Crash     into    me              
E----------4---5------7-------0---2   <========after you hit the Bm note, play E and then D/F#

In A Boy's Dream
e---------------------------------------------------------------------
b---5--5--5----5-5-5----5-5-5--------5------------------------------------------
g---4--4--4----4-4-4----4-4-4--------4-----------------------------------------
d---2--2--2----2-2-2----2-2-2--------2------------------------------------------
a---4--4--4--0-0-0-0--2-2-2-2--------x-------------------------------------
E------------------------------0---4-4-----------------------------------

****Now right when Dave starts singing towards the end of the song
"Craaaaaaaaaaaaaash........into me", just play this over and over.
e---------------------------------
b-----5-5-5-----5-5-5------5-5-5--
g-----4-4-4-----4-4-4------4-4-4--
d-----2-2-2-----2-2-2------2-2-2--
a-----0-0-0---0-0-0-0---2--2-2-2--
E---4----------------------------0   and keep repeating
[ Tab from: http://www.guitaretab.com/m/matthews-dave/22073.html ]
Related for Crash Into Me tab
Advertisement will be closed in 10 seconds